Home » I » Isbells »

Isbells - Bb Chevelle Tabs

Artists:  A B C D E F G H I J K L M N O P Q R S T U V W X Y Z # 

Bb Chevelle Tabs

(ver. 1) Click to play this song!
Isbells
 Rating:
4/5 (4 votes)
                Standard tuning, no capo

-=*=-

My life will be,
My life will be
Kind of beautiful
When the sun shines - on me
In the morning

e------4-5-2-4-------4-5-2-4-2-0---0--0------------------|
b----------------------------------2--2------------------|
g------4-6-2-4-------4-6-2-4-2-1---1--1-(strum)----------|
d----------------------------------2--2------------------|
a--------------------------------0----0------------------|
E--0--------------0--------------------------------------|

e------4-5-2-4----2-4----2-0---0--0----------------------|
b------------------------------2--2----------------------|
g------4-6-2-4----2-4----2-1---1--1-(strum)--------------|
d------------------------------2--2----------------------|
a----------------------------0----0----------------------|
E--0-----------------------------------------------------|

And the morning
Only brings me something beautiful
Something glorious
Beetchy Chevelle, who are you

e--4-5-----7--9----7--9-7-5-2-5---2--2-----0------------2--0-------|
b---------------------------------0----0^2---2^0--------0----0^2---|
g--4-6----7--9-----7--9-7-6-2-6---2--------------2------2----------|
d-------0----------------------------------------------------------|
a------------------------------------------------------------------|
E--------------------------------2--2------------------2--2--------|

e--4-5-----7--9----7--9------2--0-----0------------2--0------------|
b----------------------------0----0^2---2^0--------0----0^2--------|
g--4-6----7--9-----7--9------2--------------2------2---------------|
d-------0----------------------------------------------------------|
a------------------------------------------------------------------|
E---------------------------2--2------------------2--2-------------|

I can't get myself to rearrange
All my troubles need to be replaced
With you by my side

(twice)
e------------------0-------0-----------------------|
b------0---0---0-------3-------0---0---------------|
g------------------1-------1-----------------------|
d------2---2---2-------4-------2---2---------------|
a--------------------2-----------------------------|
E--2^0---0---0---0-------0---0---0-----------------|

e--------------------------------------------------|
b----2---2---0---0--7--7--3--2--0------------------|
g-------------------7--7--4--4--1------------------|
d----4---4---2---2--7--7--4--4--2------------------|
a-------------------5--4--2--0---------------------|
E--2---2---0---0----------------4------------------|
                    (this tab section is improv, just try some fingerpicking!)

My life will be,
My life will be
Kind of beautiful
When I do see
All my worries start to wither

(twice)
e------4-5-2-4-------4-5-2-4-2-0---0--0------------------|
b----------------------------------2--2------------------|
g------4-6-2-4-------4-6-2-4-2-1---1--1-(strum)----------|
d----------------------------------2--2------------------|
a--------------------------------0----0------------------|
E--0--------------0--------------------------------------|

(sound of car driving by)

Endless stories
Turn into memorable memories
Something glorious
B.B. Chevelle who are you

e--4-5-----7--9----7--9-7-5-2-5---2--2-----0------------2--0-------|
b---------------------------------0----0^2---2^0--------0----0^2---|
g--4-6----7--9-----7--9-7-6-2-6---2--------------2------2----------|
d-------0----------------------------------------------------------|
a------------------------------------------------------------------|
E--------------------------------2--2------------------2--2--------|

e--4-5-----7--9----7--9------2--0-----0------------2--0------------|
b----------------------------0----0^2---2^0--------0----0^2--------|
g--4-6----7--9-----7--9------2--------------2------2---------------|
d-------0----------------------------------------------------------|
a------------------------------------------------------------------|
E---------------------------2--2------------------2--2-------------|

I can't get myself to rearrange
All my troubles need to be replaced
Without you by my side
Nothing will ever be allright

(twice)
e------0---0---0---0-------0---0---0----------------------|
b----------------------3----------------------------------|
g------1---1---1---1-------1---1---1----------------------|
d----------------------4----------------------------------|
a--------------------2------------------------------------|
E--2^0---0---0---0-------0---0---0------------------------|

e---------------------------------------------------------|
b----2---0-----7--7--3--2--0------------------------------|
g--------------7--7--4--4--1-----(improv: arpeggi or------|
d----4---2-----7--7--4--4--2------fingerpicking)----------|
a--------------5--4--2--0---------------------------------|
E--2---0-------------------4------------------------------|

I can't get myself to rearrange
All my troubles keep me down again
With you by my side

(twice)
e------0---0---0---0-------0---0---0----------------------------|
b----------------------3----------------------------------------|
g------1---1---1---1-------1---1---1----------------------------|
d----------------------4----------------------------------------|
a--------------------2------------------------------------------|
E--2^0---0---0---0-------0---0---0------------------------------|

e---------------------------------------------------------------|
b----2---2---0---0--7--7--3--2--0-------------------------------|
g-------------------7--7--4--4--1------(improv: arpeggi or------|
d----4---4---2---2--7--7--4--4--2-------fingerpicking)----------|
a-------------------5--4--2--0----------------------------------|
E--2---2---0---0----------------4-------------------------------|

Ooooooooooooh! (4x)

(twice)
e--2-----------0---------------|
b--0-----------0---------------|
g--2-----------1---(strum)-----|
d-(0)-(strum)--2---------------|
a--x-----------2---------------|
E--2-----------0---------------|

And the morning
Only brings me something beautiful

e--4-5-7---7---9-----7--9-7-5-2-5--------2----------------|
b--------------------------------------0------------------|
g--4-6-7--7---9------7--9-7-6-2-6-----2-------------------|
d-------0----------------------------0-----(let ring)-----|
a---------------------------------------------------------|
E-----------------------------------2---------------------|

-=*=-

Please don't feel restricted to play strictly what I tabbed out. Some sections aren't 
fully written out but if you listen to the song you should be able to get the hang of it. 
Comments and improvements are welcome!
            
Submit corrections

↑ Back to top | Tablatures and chords for acoustic guitar and electric guitar, ukulele, drums are parodies/interpretations of the original songs. You may use it for private study, scholarship, research or language learning purposes only