» » »

Iron Maiden - The Red And The Black Tabs

Artists:  A B C D E F G H I J K L M N O P Q R S T U V W X Y Z # 

The Red And The Black Tabs

(ver. 2) Click to play this song!
Iron Maiden
 Rating:
2.4/5 (23 votes)

 The Red And The Black  lessons Tabs too difficult? Try these video lessons and learn fast
 
                Tuning: Standard

 RIFF 1:
e|---------------------------------------------------------------------------|
B|-----------------------------12-12h13p12----12-----------------------------|
G|-----------11-12-14-12-11----------------14--------------------------------|
D|--------14----------------14-----------------------------------------------|
A|---------------------------------------------------------------------------|
E|---------------------------------------------------------------------------|
 RIFF 2:
e|---------------------------------------------------------------------------|
B|---------------------------------------------------------------------------|
G|----------------------------------------12/11------------------------------|
D|-----/14-12----12-14----/14-12----12-14-------12-12----12-14---------------|
A|------------14-----------------14-------------------14---------------------|
E|---------------------------------------------------------------------------|
 RIFF 3:
e|---------------------------------------------------------------------------|
B|---------------------------12-------------------15-13-12-------------------|
G|------14-14-12-14-12-14-12-------14-14-12-14-12----------------------------|
D|---------------------------------------------------------------------------|
A|---------------------------------------------------------------------------|
E|---------------------------------------------------------------------------|
 RIFF 4: 
e|---------------------------------------------------------------------------|
B|-------------------------------------------------------17-15----17-15------|
G|------13-14-16----------13-14-16-14-13--------13-14-16-------16-------16---|
D|---------------14----------------------14----------------------------------|
A|---------------------------------------------------------------------------|
E|---------------------------------------------------------------------------|

e|---------------------------------------------------------------------------|
B|---------------------------------------------------------------------------|
G|------14-16/14/13----------------------------------------------------------|
D|---------------------------------------------------------------------------|
A|---------------------------------------------------------------------------|
E|---------------------------------------------------------------------------|            
Submit corrections


        The Red And The Black  lessons Hard to play? Try these video lessons and learn fast The Red And The Black  lessons
        
↑ Back to top | Tablatures and chords for acoustic guitar and electric guitar, ukulele, drums are parodies/interpretations of the original songs. You may use it for private study, scholarship, research or language learning purposes only