Home » I » Iron Maiden »

Iron Maiden - Prowler Bass

Artists:  A B C D E F G H I J K L M N O P Q R S T U V W X Y Z # 

Prowler Bass

(ver. 1) Click to play this song!
Iron Maiden
 Rating:
3.1/5 (29 votes)
                          Intro                                                            
     S    W                   W                   S E.   H        S S S S  
G||----|-------------------|-------------------|--------------------------|
D||----|-------------------|-------------------|--------------------------|
A||----|-------------------|-------------------|--7-L\----------------5---|
E||----|-------------------|-------------------|--------------------7-----|


  S E.   H        S S S S    S E.   H        S S S S    H.           S S S S  
--------------------------|--------------------------|-----------------------|
--------------------------|--------------------------|-----------------------|
--7-L\----------------5---|--5-L\----------------5---|--7------------L---5---|
--------------------7-----|--------------------7-----|-----------------7-----|


  S E.   H        S S S S    S E.   H        S S S S  
--------------------------|--------------------------|
--------------------------|--------------------------|
--7-L\----------------5---|--7-L\----------------5---|
--------------------7-----|--------------------7-----|


  S E.   H        S S S S    H        S S S S S S S S  
--------------------------|--9--------9-7-------------|
--------------------------|-----------------9---7-5---|
--5-L\----------------5---|---------------------------|
--------------------7-----|---------------------------|


  Verso Riff 1                                
                 >     >     >     >     >    
  S            S S S S S S S S S S S S S S S  
---------------------------------------------|
---------------------------------------------|
--7------------7-7-7-7-7-7-7-7-7-7-7-7-7-7-7-|
---------------------------------------------|


      >     >                                  >     >     >     >     >    
  S S S S S S S S S S S  S   S  S  S  S    S S S S S S S S S S S S S S S S  
--------------------7-9-12h-14-12-14-12-|----------------------------------|
----------------7-9---------------------|----------------------------------|
--7-7-7-7-7-7-7-------------------------|--5-5-5-5-5-5-5-5-5-5-5-5-5-5-5-5-|
----------------------------------------|----------------------------------|


      >     >                           >     >     >     >     >    
  S S S S S S S S S S S E  S S S    S S S S S S S S S S S S S S S S  
---------------------------------|----------------------------------|
---------------------------------|----------------------------------|
--7-7-7-7-7-7-7-7-7-5---5--------|--7-7-7-7-7-7-7-7-7-7-7-7-7-7-7-7-|
----------------------7----7-5-7-|----------------------------------|


      >     >                            >     >     >     >     >    
  S S S S S S S S S S S S S S S S    S S S S S S S S S S S S S S S S  
--------------------7-9-9-9-7-----|----------------------------------|
----------------7-9-----------9-7-|----------------------------------|
--7-7-7-7-7-7-7-------------------|--5-5-5-5-5-5-5-5-5-5-5-5-5-5-5-5-|
----------------------------------|----------------------------------|


                                   Verso Riff 2                              
      >     >        >    >        >            >     >     >     >     >    
  S S S S S S S S E  S E  S E      E            S S S S S S S S S S S S S S  
--------------------------------|-------------------------------------------|
--------------------------------|-------------------------------------------|
--7-7-7-7-7-7-7-7-----------3/--|--8------------8-8-8-8-8-8-8-8-8-8-8-8-8-8-|
------------------3--3-5--5-----|-------------------------------------------|


                                           >     >        >    >     
   S  S S S S S S S S S S S S S S S    S S S S S S S S E  S E  S E   
----------------------9-9-9-9-7-----|-------------------------------|
--10-10-9-9-9-7-7-7-7-----------9-7-|-------------------------------|
------------------------------------|--7-7-7-7-7-7-7-7-----------3--|
------------------------------------|------------------3--3-5--5----|


      >     >                           >     >     >     >     >    
  S S S S S S S S S S S E  S S S    S S S S S S S S S S S S S S S S  
---------------------------------|----------------------------------|
---------------------------------|----------------------------------|
--7-7-7-7-7-7-7-7-7-5---5--------|--8-8-8-8-8-8-8-8-8-8-8-8-8-8-8-8-|
----------------------7----7-5-7-|----------------------------------|


                                           >     >        >    >     
   S  S S S S S S S S S S S S S S S    S S S S S S S S E  S E  S E   
----------------------9-9-9-9-7-----|-------------------------------|
--10-10-9-9-9-7-7-7-7-----------9-7-|-------------------------------|
------------------------------------|--7-7-7-7-7-7-7-7-----------3--|
------------------------------------|------------------3--3-5--5----|


                                    Coro A                
      >     >                                             
  S S S S S S S S S S S E  S S S    H.           S S S S  
---------------------------------|-----------------------|
---------------------------------|-----------------------|
--7-7-7-7-7-7-7-7-7-5---5--------|--3------------L---3---|
----------------------7----7-5-3-|-----------------5-----|


                                  >     >     >     >     >    
  H        S S S S S S S S    S S S S S S S S S S S S S S S S  
---------------------------|----------------------------------|
---------------------------|----------------------------------|
--5--------7-5---------5---|--7-7-7-7-7-7-7-7-7-7-7-7-7-7-7-7-|
-----------------7---5-----|----------------------------------|


      >     >                                              
  S S S S S S S S S S S S S S S S    H.           S S S S  
----------------------------------|-----------------------|
----------------------------------|-----------------------|
--7-7-7-7-7-7-7-7-7-5---5---------|--3------------L---3---|
----------------------7---7-5-3-0-|-----------------5-----|


                                                             Interludio 1      
  H        S S S S S S E     E  Q.     W                     W                 
--------------------------|-----------------------------||--------------------|
--------------------------|-----------------------------||*-------------------|
--5--------7-5------------|-----7------L----------------||*-------------------|
-----------------7---5-3--|--L--0------L----------------||--------------------|


  W                      W                   W                 
--------------------||--------------------|-------------------|
-------------------*||*-------------------|-------------------|
-------------------*||*--7----------------|--9----------------|
--------------------||--------------------|-------------------|


   W                   W                     W                 
--------------------|--------------------||-------------------|
--------------------|-------------------*||-------------------|
--12----------------|--7----------------*||--7----------------|
--------------------|--------------------||-------------------|


  Interludio 2                                                               
  S            S S S S S S S S S S S E  E     S S S S S S S S S S S S E  E   
-------------------------------------------|--------------------------------|
-------------------------------------------|--------------------------------|
--7------------5---7-5---7-5---7-5---7--5--|--7-5---7-5---7-5---7-5---7--5--|
-----------------7-----7-----7-----7-------|------7-----7-----7-----7-------|


  S S S S S S S S S S S S E  E     S S S S S S S S S S S S E  E   
--------------------------------|--------------------------------|
--7-5---7-5---7-5---7-5---7--5--|--------------------------------|
------7-----7-----7-----7-------|--7-5---7-5---7-5---7-5---7--5--|
--------------------------------|------7-----7-----7-----7-------|


  S S S S S S S S S S S S E  E     S S S S S S S S S S S S E  E   
--------------------------------|--------------------------------|
--------------------------------|--------------------------------|
--7-5---7-5---7-5---7-5---7--5--|--7-5---7-5---7-5---7-5---7--5--|
------7-----7-----7-----7-------|------7-----7-----7-----7-------|


  S S S S S S S S S S S S E  E   
--------------------------------|
--7-5---7-5---7-5---7-5---7--5--|
------7-----7-----7-----7-------|
--------------------------------|


  Solo Dave Murray                                                              
  S                S S S S S S S S S S S E  E     E  S S S S S S S S S E  S E   
-----------------------------------------------|-------------------------------|
-----------------------------------------------|-------------------------------|
--7----------------7-7-7-7-7-7-7-7-7-7-7-7--5--|--7--7-7-7-7-7-7-7-7-7-7--7-7--|
-----------------------------------------------|-------------------------------|


  E  S S S S S S S S S E  S E     E  S S S S S S S S S E  S E   
-------------------------------|-------------------------------|
-------------------------------|-------------------------------|
--5--5-5-5-5-5-5-5-5-5-5--5-5--|--3--3-3-3-3-3-3-3-3-3-3--3-3--|
-------------------------------|-------------------------------|


  E  S S S S E  E.  E.  E     E  S S S S S S S S S E  S E   
---------------------------|-------------------------------|
---------------------------|-------------------------------|
--2--2-2-2-2-2--3---3---5--|--7--7-7-7-7-7-7-7-7-7-7--7-7--|
---------------------------|-------------------------------|


  E  E  E  E  E  S E  S E     E  S S S S S S S S S E  S E   
--------7------------------|-------------------------------|
-----7-----7--5--7-5-------|-------------------------------|
--5-------------------5-5--|--3--3-3-3-3-3-3-3-3-3-3--3-3--|
---------------------------|-------------------------------|


  E  S S S S E  E.  E.  E     E  S S S S S S S S S E  S E   
---------------------------|-------------------------------|
---------------------------|-------------------------------|
--2--2-2-2-2-2--3---3---5--|--7--7-7-7-7-7-7-7-7-7-7--7-7--|
---------------------------|-------------------------------|


  E  S S E  E  E  S E  S E     E  S S S S S S S S S E  S E   
-----7-7-7--5---------------|-------------------------------|
---------------7--5-5-------|-------------------------------|
--5--------------------5-5--|--3--3-3-3-3-3-3-3-3-3-3--3-3--|
----------------------------|-------------------------------|


                              Coro B                             
  E  S S S S E  E.  E.  E     E      S S S S S S S S S E  S S S  
---------------------------|------------------------------------|
---------------------------|------------------------------------|
--2--2-2-2-2-2--3---3---5--|--7------7-7-7-7-7-7-7-7-7-7--7-7-7-|
---------------------------|------------------------------------|


  E  S S S S S S S S S E  S S S    E  S S S S S S S S S E  S S S  
--------------------------------|--------------------------------|
--------------------------------|--------------------------------|
--5--5-5-5-5-5-5-5-5-5-5--5-5-5-|--3--3-3-3-3-3-3-3-3-3-3--3-3-3-|
--------------------------------|--------------------------------|


  E  S S S S S S E.  E.  E     E  S S S S S S S S S E  S S S  
----------------------------|--------------------------------|
----------------------------|--------------------------------|
--2--2-2-2-2-2-2-3---3---5--|--7--7-7-7-7-7-7-7-7-7-7--7-7-7-|
----------------------------|--------------------------------|


                                   Coro A                                    
  E  S S S S S S S S S E  S S S    H.           S S S S    W                 
--------------------------------|-----------------------|-------------------|
--------------------------------|-----------------------|-------------------|
--5--5-5-5-5-5-5-5-5-5-5--5-5-5-|--3------------L---3---|--5----------------|
--------------------------------|-----------------5-----|-------------------|


      >     >     >     >     >          >     >                      
  S S S S S S S S S S S S S S S S    S S S S S S S S S S S S S S S S  
----------------------------------|----------------------------------|
----------------------------------|----------------------------------|
--7-7-7-7-7-7-7-7-7-7-7-7-7-7-7-7-|--7-7-7-7-7-7-7-7-7-5---5---------|
----------------------------------|----------------------7---7-5-3-0-|


  H.           S S S S    H.           S S S S  
-----------------------|-----------------------|
-----------------------|-----------------------|
--3------------L---3---|--5------------L---5---|
-----------------5-----|-----------------7-----|


  Verso Riff 1                                
                 >     >     >     >     >    
  S            S S S S S S S S S S S S S S S  
---------------------------------------------|
---------------------------------------------|
--7------------7-7-7-7-7-7-7-7-7-7-7-7-7-7-7-|
---------------------------------------------|


      >     >                                  >     >     >     >     >    
  S S S S S S S S S S S  S   S  S  S  S    S S S S S S S S S S S S S S S S  
--------------------7-9-12h-14-12-14-12-|----------------------------------|
----------------7-9---------------------|----------------------------------|
--7-7-7-7-7-7-7-------------------------|--5-5-5-5-5-5-5-5-5-5-5-5-5-5-5-5-|
----------------------------------------|----------------------------------|


      >     >                           >     >     >     >     >    
  S S S S S S S S S S S E  S S S    S S S S S S S S S S S S S S S S  
---------------------------------|----------------------------------|
---------------------------------|----------------------------------|
--7-7-7-7-7-7-7-7-7-5---5--------|--7-7-7-7-7-7-7-7-7-7-7-7-7-7-7-7-|
----------------------7----7-5-7-|----------------------------------|


      >     >                            >     >     >     >     >    
  S S S S S S S S S S S S S S S S    S S S S S S S S S S S S S S S S  
--------------------7-9-9-9-7-----|----------------------------------|
----------------7-9-----------9-7-|----------------------------------|
--7-7-7-7-7-7-7-------------------|--5-5-5-5-5-5-5-5-5-5-5-5-5-5-5-5-|
----------------------------------|----------------------------------|


                                   Verso Riff 2                              
      >     >        >    >        >            >     >     >     >     >    
  S S S S S S S S E  S E  S E      E            S S S S S S S S S S S S S S  
--------------------------------|-------------------------------------------|
--------------------------------|-------------------------------------------|
--7-7-7-7-7-7-7-7-----------3/--|--8------------8-8-8-8-8-8-8-8-8-8-8-8-8-8-|
------------------3--3-5--5-----|-------------------------------------------|


                                           >     >        >    >     
   S  S S S S S S S S S S S S S S S    S S S S S S S S E  S E  S E   
----------------------9-9-9-9-7-----|-------------------------------|
--10-10-9-9-9-7-7-7-7-----------9-7-|-------------------------------|
------------------------------------|--7-7-7-7-7-7-7-7-----------3--|
------------------------------------|------------------3--3-5--5----|


      >     >                           >     >     >     >     >    
  S S S S S S S S S S S E  S S S    S S S S S S S S S S S S S S S S  
---------------------------------|----------------------------------|
---------------------------------|----------------------------------|
--7-7-7-7-7-7-7-7-7-5---5--------|--8-8-8-8-8-8-8-8-8-8-8-8-8-8-8-8-|
----------------------7----7-5-7-|----------------------------------|


                                           >     >        >    >     
   S  S S S S S S S S S S S S S S S    S S S S S S S S E  S E  S E   
----------------------9-9-9-9-7-----|-------------------------------|
--10-10-9-9-9-7-7-7-7-----------9-7-|-------------------------------|
------------------------------------|--7-7-7-7-7-7-7-7-----------3--|
------------------------------------|------------------3--3-5--5----|


                                    Coro A                
      >     >                                             
  S S S S S S S S S S S E  S S S    H.           S S S S  
---------------------------------|-----------------------|
---------------------------------|-----------------------|
--7-7-7-7-7-7-7-7-7-5---5--------|--3------------L---3---|
----------------------7----7-5-3-|-----------------5-----|


                                  >     >     >     >     >    
  H        S S S S S S S S    S S S S S S S S S S S S S S S S  
---------------------------|----------------------------------|
---------------------------|----------------------------------|
--5--------7-5---------5---|--7-7-7-7-7-7-7-7-7-7-7-7-7-7-7-7-|
-----------------7---5-----|----------------------------------|


      >     >                                              
  S S S S S S S S S S S S S S S S    H.           S S S S  
----------------------------------|-----------------------|
----------------------------------|-----------------------|
--7-7-7-7-7-7-7-7-7-5---5---------|--3------------L---3---|
----------------------7---7-5-3-0-|-----------------5-----|


                             Outro                                      
                                   |-3-| |-3-| |-3-| |-3-| |-3-| |-3-|  
  H        S S S S S S E     Q     S S S S S S S S S S S S S S S S S S  
--------------------------|--------------------------------------------|
--------------------------|--------------------------------------7-7-7-|
--5--------7-5------------|--------------------------------------------|
-----------------7---5-3--|--0-----0-0-0-0-0-0-0-0-0-0-0-0-0-0-0-------|


  |-3-| |-3-| |-3-| |-3-| |-3-| |-3-| |-3-|  |--3--|  
  S S S S S S S S S S S S S S S S S S S S S  S  S  S  
--------7-7-7-9-9-9-7-7-7-9-9-9-7-7-7-9-9-9-14-14-14-|
--9-9-9----------------------------------------------|
-----------------------------------------------------|
-----------------------------------------------------|


   |--3--|  |--3--|  |--3--|  |--3--|  |--3--|  |--3--|  |--3--|  |--3--|  
   S  S  S  S  S  S  S  S  S  S  S  S  S  S  S  S  S  S  S  S  S  S  S  S  
--12-12-12-11-11-11-12-12-12-11-11-11-------------------------------------|
--------------------------------------14-14-14-12-12-12-------------------|
--------------------------------------------------------14-14-14-12-12-12-|
--------------------------------------------------------------------------|


  |-3-| |-3-| |-3-| |-3-| |-3-| |--3--|                               
  S S S S S S S S S S S S S S S E  E  E  E     E.  E.   E  H          
--------------------------------------------|-----------------------||
--------------------------------------------|-----------------------||
--------------------------------------------|--7---L\---------------||
--0-0-0-0-0-0-0-0-0-0-0-0-0-0-0-0--0--0--0--|--0---L----------------||            
Submit corrections

↑ Back to top | Tablatures and chords for acoustic guitar and electric guitar, ukulele, drums are parodies/interpretations of the original songs. You may use it for private study, scholarship, research or language learning purposes only