Home » I » Iron Maiden »

Iron Maiden - Prowler Drum

Artists:  A B C D E F G H I J K L M N O P Q R S T U V W X Y Z # 

Prowler Drum

(ver. 1) Click to play this song!
Iron Maiden
 Rating:
4.1/5 (21 vote)
                         Intro                                       
     S    W                   H.           S  S  S S  
C||----|-------------------|-----------------38-38---|
C||----|-------------------|-------------------------|
C||----|-------------------|-------------------------|
C||----|-------------------|-------------------------|
C||----|-------------------|-------------------------|
C||----|-------------------|-------------------------|


   H        Q    S  S  S S     H        Q    S  S  S S  
--36---------------38-38---|--36---------------38-38---|
--44-----------------------|--44-----------------------|
--49-----------------------|--49-----------------------|
---------------------------|---------------------------|
---------------------------|---------------------------|
---------------------------|---------------------------|


   H        Q    S  S  S S     H.           S  S  S S  
--36---------------38-38---|--36--------------38-38---|
--44-----------------------|--44----------------------|
--49-----------------------|--57----------------------|
---------------------------|--------------------------|
---------------------------|--------------------------|
---------------------------|--------------------------|


   H        Q    S  S  S S     H        Q    S  S  S S  
--36---------------38-38---|--36---------------38-38---|
--44-----------------------|--44-----------------------|
--49-----------------------|--49-----------------------|
---------------------------|---------------------------|
---------------------------|---------------------------|
---------------------------|---------------------------|


   H        Q    S  S  S S     H         S  E   E   S  E   
--36---------------38-38---|--36--------38-48--45--45-43--|
--44-----------------------|--44--------------------------|
--49-----------------------|--57--------------------------|
---------------------------|------------------------------|
---------------------------|------------------------------|
---------------------------|------------------------------|


   Verso Riff 1                                              
   S            S  S  S  S  S  S  S  S  S  S  S  S  S  S  S  
--36-----------46-38-36-46-36-38-36-46-36-38-36-46-36-38-46-|
--46--------------46-46----46-46-46----46-46-46----46-46----|
--49--------------------------------------------------------|
------------------------------------------------------------|
------------------------------------------------------------|
------------------------------------------------------------|


   S  S  S  S  S  S  S  S  S  S  S  S  S  S  S  S  
--36-46-38-36-46-36-38-36-46-36-38-36-46-36-38-46-|
--46----46-46----46-46-46----46-46-46----46-46----|
--------------------------------------------------|
--------------------------------------------------|
--------------------------------------------------|
--------------------------------------------------|


   S  S  S  S  S  S  S  S  S  S  S  S  S  S  S  S  
--36-46-38-36-46-36-38-36-46-36-38-36-46-36-38-46-|
--46----46-46----46-46-46----46-46-46----46-46----|
--------------------------------------------------|
--------------------------------------------------|
--------------------------------------------------|
--------------------------------------------------|


                           |--3--|  |--3--|     |--3--|  |--3--|     |--3--|    
   S  S  S  S  S  S  S  S  T  T  T  T  T  T  S  T  T  T  T  T  T  S  T  T  T  S 
--36-46-38-36-46-36-38-36-38-38-38-38-38-38-38-38-38-38-38-38-38-38-38-38-38-38-
--46----46-46----46-46-46-------------------36-------------------36-------------
--------------------------------------------------------------------------------
--------------------------------------------------------------------------------
--------------------------------------------------------------------------------
--------------------------------------------------------------------------------


   S  S  S  S  S  S  S  S  S  S  S  S  S  S  S  S  
--36-46-38-36-46-36-38-36-46-36-38-36-46-36-38-46-|
--46----46-46----46-46-46----46-46-46----46-46----|
--49----------------------------------------------|
--------------------------------------------------|
--------------------------------------------------|
--------------------------------------------------|


   S  S  S  S  S  S  S  S  S  S  S  S  S  S  S  S  
--36-46-38-36-46-36-38-36-46-36-38-36-46-36-38-46-|
--46----46-46----46-46-46----46-46-46----46-46----|
--------------------------------------------------|
--------------------------------------------------|
--------------------------------------------------|
--------------------------------------------------|


   S  S  S  S  S  S  S  S  S  S  S  S  S  S  S  S  
--36-46-38-36-46-36-38-36-46-36-38-36-46-36-38-46-|
--46----46-46----46-46-46----46-46-46----46-46----|
--------------------------------------------------|
--------------------------------------------------|
--------------------------------------------------|
--------------------------------------------------|


   S  S  S  S  S  S  S  S  S. T  T  T  S. T  T  T  E   
--36-46-38-36-46-36-38-36-57-38-38--L-57-38-38--L-57--|
--46----46-46----46-46-46-49----------49----------49--|
------------------------------------------------------|
------------------------------------------------------|
------------------------------------------------------|
--------------------------36----------36----------36--|


   Verso Riff 2                                              
   S            S  S  S  S  S  S  S  S  S  S  S  S  S  S  S  
--36-----------44-38-36-44-36-38-36-44-36-38-36-44-36-38-44-|
--44--------------44-44----44-44-44----44-44-44----44-44----|
--49--------------------------------------------------------|
------------------------------------------------------------|
------------------------------------------------------------|
------------------------------------------------------------|


   S  S  S  S  S  S  S  S  S  S  S  S  S  S  T  T  T  T  
--36-44-38-36-44-36-38-36-44-36-38-36-44-36-38-38-38-38-|
--44----44-44----44-44-44----44-44-44----44-------------|
--49----------------------------------------------------|
--------------------------------------------------------|
--------------------------------------------------------|
--------------------------------------------------------|


   E   E   S  S  E   E   S  E   S  E   
------38--36-36-38--57--38-57--38-57--|
--44--57--44-44-46--49-----49-----49--|
------49------------------------------|
--------------------------------------|
--------------------------------------|
--36----------------36-----36-----36--|


   E   E   S  S  E   X  X  T  T T  S  S  S  S  S  S  
--36--38--36-36-38--38-38-38-38---------45-45-43-43-|
--44--57--44-44-46----------------47-47-------------|
------49--------------------------------------------|
----------------------------------------------------|
----------------------------------------------------|
----------------------------------------------------|


   S  S  S  S  S  S  S  S  S  S  S  S  S  S  S  S  
--36-44-38-36-44-36-38-36-44-36-38-36-44-36-38-44-|
--44----44-44----44-44-44----44-44-44----44-44----|
--49----------------------------------------------|
--------------------------------------------------|
--------------------------------------------------|
--------------------------------------------------|


   S  S  S  S  S  S  S  S  S  S  S  S  S  S  T  T  T  T  
--36-44-38-36-44-36-38-36-44-36-38-36-44-36-38-38-38-38-|
--44----44-44----44-44-44----44-44-44----44-------------|
--------------------------------------------------------|
--------------------------------------------------------|
--------------------------------------------------------|
--------------------------------------------------------|


   E   E   S  S  E   E   S  E   S  E   
------38--36-36-38--57--38-57--38-57--|
--44--57--44-44-46--49-----49-----49--|
------49------------------------------|
--------------------------------------|
--------------------------------------|
--36----------------36-----36-----36--|


                                                        Coro A                  
   E   E   S  S  E   X  X  T  T T  S  S  S  S  S  S     H.           S  S  S S  
--36--38--36-36-38--38-38-38-38---------45-45-43-43-|--36--------------38-38---|
--44--57--44-44-46----------------47-47-------------|--44----------------------|
------49--------------------------------------------|--49----------------------|
----------------------------------------------------|--------------------------|
----------------------------------------------------|--------------------------|
----------------------------------------------------|--------------------------|


   H         S  E   E   S  E   
--36--------38-48--45--45-43--|
--44--------------------------|
--57--------------------------|
------------------------------|
------------------------------|
------------------------------|


   S  S  S  S  S  S  S  S  S  S  S  S  S  S  S  S  
--36-46-38-36-46-36-38-36-46-36-38-36-46-36-38-46-|
--46----46-46----46-46-46----46-46-46----46-46----|
--49----------------------------------------------|
--------------------------------------------------|
--------------------------------------------------|
--------------------------------------------------|


   S  S  S  S  S  S  E   X  X  T  T T  S  S  S  S  S  S  
--36-46-38-36-46-36-38--38-38-38-38---------45-45-------|
--46----46-46----46-46----------------47-47-------43-43-|
--------------------------------------------------------|
--------------------------------------------------------|
--------------------------------------------------------|
--------------------------------------------------------|


   H.           S  S  S S     H         S  E   E   S  E   
--36--------------38-38---|--36--------38-48--45--45-43--|
--44----------------------|--44--------------------------|
--49----------------------|--57--------------------------|
--------------------------|------------------------------|
--------------------------|------------------------------|
--------------------------|------------------------------|


                                     Interludio 1                            
                        TP                                                   
  E   W                 Q    E       W                   W                   
-----36----------------46-------||--------------------|--------------------||
-----44-------------------------||--------------------|--------------------||
-----49-------------------------||*-------------------|-------------------*||
--------------------------------||*-------------------|-------------------*||
--------------------------------||--------------------|--------------------||
--------------------------------||--------------------|--------------------||


    W                    W                    W                 
---36----------------|--36----------------|--36----------------|
---44----------------|--44----------------|--44----------------|
*--49----------------|--57----------------|--49----------------|
*--------------------|--------------------|--------------------|
---------------------|--------------------|--------------------|
---------------------|--------------------|--------------------|


   W                      H.               Q     
--36-----------------||--36------------38g38----|
--44-----------------||--44---------------------|
--57----------------*||--57---------------------|
--------------------*||-------------------------|
---------------------||-------------------------|
---------------------||-------------------------|


   Interludio 2                                          
   S            S  S  S  S  S  S  S  S  S  S  S  E   E   
--38-----------38-36-38-38-36-38-38-36-38-38-36-38--36--|
------------------------------------------------49--57--|
--------------------------------------------------------|
--------------------------------------------------------|
--------------------------------------------------------|
--------------------------------------------------------|


   S  S  S  S  S  S  S  S  S  S  S  S  E   E   
--38-38-36-38-38-36-38-38-36-38-38-36-38--36--|
--------------------------------------49--57--|
----------------------------------------------|
----------------------------------------------|
----------------------------------------------|
----------------------------------------------|


   S  S  S  S  S  S  S  S  S  S  S  S  E   E   
--38-38-36-38-38-36-38-38-36-38-38-36-38--36--|
--------------------------------------49--57--|
----------------------------------------------|
----------------------------------------------|
----------------------------------------------|
----------------------------------------------|


   S  S  S  S  S  S  S  S  S  S  S  S  E   E   
--38-38-36-38-38-36-38-38-36-38-38-36-38--36--|
--------------------------------------49--57--|
----------------------------------------------|
----------------------------------------------|
----------------------------------------------|
----------------------------------------------|


   S  S  S  S  S  S  S  S  S  S  S  S  E   E   
--38-38-36-38-38-36-38-38-36-38-38-36-38--36--|
--------------------------------------49--57--|
----------------------------------------------|
----------------------------------------------|
----------------------------------------------|
----------------------------------------------|


   S  S  S  S  S  S  S  S  S  S  S  S  E   E   
--38-38-36-38-38-36-38-38-36-38-38-36-38--36--|
--------------------------------------49--57--|
----------------------------------------------|
----------------------------------------------|
----------------------------------------------|
----------------------------------------------|


   S  S  S  S  S  S  S  S  S  S  S  S  E   E   
--38-38-36-38-38-36-38-38-36-38-38-36-38--36--|
--------------------------------------49--57--|
----------------------------------------------|
----------------------------------------------|
----------------------------------------------|
----------------------------------------------|


   Solo Dave Murray                                          
   S                S  S  S  S  S  S  S  S  S  S  S  E   E   
--38---------------38-36-38-38-36-38-38-36-38-38-36-38--36--|
----------------------------------------------------49--57--|
------------------------------------------------------------|
------------------------------------------------------------|
------------------------------------------------------------|
------------------------------------------------------------|


   S  S  S  S  S  S  S  S  S  S  S  S  S  S  S  S  
--36-46-38-36-46-36-38-36-46-36-38-36-46-36-38-46-|
--46----46-46----46-46-46----46-46-46----46-46----|
--49----46----------------------------------------|
--------------------------------------------------|
--------------------------------------------------|
--------------------------------------------------|


   S  S  S  S  S  S  S  S  S  S  S  S  S  S  S  S  
--36-46-38-36-46-36-38-36-46-36-38-36-46-36-38-46-|
--46----46-46----46-46-46----46-46-46----46-46----|
--------46----------------------------------------|
--------------------------------------------------|
--------------------------------------------------|
--------------------------------------------------|


   S  S  S  S  S  S  S  S  S  S  S  S  S  S  S  S  
--36-46-38-36-46-36-38-36-46-36-38-36-46-36-38-46-|
--46----46-46----46-46-46----46-46-46----46-46----|
--------46----------------------------------------|
--------------------------------------------------|
--------------------------------------------------|
--------------------------------------------------|


   S  S  S  S  S  S  S  S  E   S  E   S  E   
--36-46-38-36-46-36-38-36-57--38-57-----57--|
--46----46-46----46-46-46-49-----49-----49--|
--------46----------------------------------|
--------------------------------------------|
--------------------------------------------|
--------------------------36-----36--36-36--|


   S  S  S  S  S  S  S  S  S  S  S  S  S  S  S  S  
--36-46-38-36-46-36-38-36-46-36-38-36-46-36-38-46-|
--46----46-46----46-46-46----46-46-46----46-46----|
--49----46----------------------------------------|
--------------------------------------------------|
--------------------------------------------------|
--------------------------------------------------|


   S  S  S  S  S  S  S  S  S  S  S  S  S  S  S  S  
--36-46-38-36-46-36-38-36-46-36-38-36-46-36-38-46-|
--46----46-46----46-46-46----46-46-46----46-46----|
--------46----------------------------------------|
--------------------------------------------------|
--------------------------------------------------|
--------------------------------------------------|


   S  S  S  S  S  S  S  S  S  S  S  S  S  S  S  S  
--36-46-38-36-46-36-38-36-46-36-38-36-46-36-38-46-|
--46----46-46----46-46-46----46-46-46----46-46----|
--------46----------------------------------------|
--------------------------------------------------|
--------------------------------------------------|
--------------------------------------------------|


   S  S  S  S  S  S  S  S  E   S  E   S  E   
--36-46-38-36-46-36-38-36-57--38-57-----57--|
--46----46-46----46-46-46-49-----49-----49--|
--------46----------------------------------|
--------------------------------------------|
--------------------------------------------|
--------------------------36-----36--36-36--|


   S  S  S  S  S  S  S  S  S  S  S  S  S  S  S  S  
--36-46-38-36-46-36-38-36-46-36-38-36-46-36-38-46-|
--46----46-46----46-46-46----46-46-46----46-46----|
--49----46----------------------------------------|
--------------------------------------------------|
--------------------------------------------------|
--------------------------------------------------|


   S  S  S  S  S  S  S  S  S  S  S  S  S  S  S  S  
--36-46-38-36-46-36-38-36-46-36-38-36-46-36-38-46-|
--46----46-46----46-46-46----46-46-46----46-46----|
--------46----------------------------------------|
--------------------------------------------------|
--------------------------------------------------|
--------------------------------------------------|


   S  S  S  S  S  S  S  S  S  S  S  S  S  S  S  S  
--36-46-38-36-46-36-38-36-46-36-38-36-46-36-38-46-|
--46----46-46----46-46-46----46-46-46----46-46----|
--------46----------------------------------------|
--------------------------------------------------|
--------------------------------------------------|
--------------------------------------------------|


   S  S  S  S  S  S  S  S  E   S  E   S  E   
--36-46-38-36-46-36-38-36-57--38-57-----57--|
--46----46-46----46-46-46-49-----49-----49--|
--------46----------------------------------|
--------------------------------------------|
--------------------------------------------|
--------------------------36-----36--36-36--|


   Coro B                                              
   S      S  S  S  S  S  S  S  S  S  S  S  S  S  S  S  
--36-----46-38-36-46-36-38-36-46-36-38-36-46-36-38-46-|
--46--------46-46----46-46-46----46-46-46----46-46----|
--49--------46----------------------------------------|
------------------------------------------------------|
------------------------------------------------------|
------------------------------------------------------|


   S  S  S  S  S  S  S  S  S  S  S  S  S  S  S  S  
--36-46-38-36-46-36-38-36-46-36-38-36-46-36-38-46-|
--46----46-46----46-46-46----46-46-46----46-46----|
--------46----------------------------------------|
--------------------------------------------------|
--------------------------------------------------|
--------------------------------------------------|


   S  S  S  S  S  S  S  S  S  S  S  S  S  S  S  S  
--36-46-38-36-46-36-38-36-46-36-38-36-46-36-38-46-|
--46----46-46----46-46-46----46-46-46----46-46----|
--------46----------------------------------------|
--------------------------------------------------|
--------------------------------------------------|
--------------------------------------------------|


   S  S  S  S  S  S  S  S  E   S  E   S  E   
--36-46-38-36-46-36-38-36-57--38-57-----57--|
--46----46-46----46-46-46-49-----49-----49--|
--------46----------------------------------|
--------------------------------------------|
--------------------------------------------|
--------------------------36-----36--36-36--|


   S  S  S  S  S  S  S  S  S  S  S  S  S  S  S  S  
--36-46-38-36-46-36-38-36-46-36-38-36-46-36-38-46-|
--46----46-46----46-46-46----46-46-46----46-46----|
--49----46----------------------------------------|
--------------------------------------------------|
--------------------------------------------------|
--------------------------------------------------|


                                                    Coro A                   
   S  S  S  S  S  S  S  S  S  S  S  S  S  S  E      H        Q    S  S  S S  
--36-46-38-36-46-36-38-36-46-36-38-36-38-45-43--|--36---------------38-38---|
--46----46-46----46-46-46----46-46-46-38-46-46--|--44-----------------------|
--------46--------------------------------------|--49-----------------------|
------------------------------------------------|---------------------------|
------------------------------------------------|---------------------------|
------------------------------------------------|---------------------------|


   H         S  E   E   S  E   
--36--------38-48--45--45-43--|
--44--------------------------|
--49--------------------------|
------------------------------|
------------------------------|
------------------------------|


   S  S  S  S  S  S  S  S  S  S  S  S  S  S  S  S  
--36-46-38-36-46-36-38-36-46-36-38-36-46-36-38-46-|
--46----46-46----46-46-46----46-46-46----46-46----|
--49----46----------------------------------------|
--------------------------------------------------|
--------------------------------------------------|
--------------------------------------------------|


   S  S  S  S  S  S  S  S  S  S  S  S  S  S  S  S     H        Q    S  S  S S  
--36-46-38-36-46-36-38-36-46-36-38-36-46-47-45-43-|--36---------------38-38---|
--46----46-46----46-46-46----46-46-46----46-46----|--44-----------------------|
--------46----------------------------------------|--49-----------------------|
--------------------------------------------------|---------------------------|
--------------------------------------------------|---------------------------|
--------------------------------------------------|---------------------------|


   H         S  E   E   S  E   
--36--------38-48--45--45-43--|
--44--------------------------|
--49--------------------------|
------------------------------|
------------------------------|
------------------------------|


   Verso Riff 1                                              
   S            S  S  S  S  S  S  S  S  S  S  S  S  S  S  S  
--36-----------46-38-36-46-36-38-36-46-36-38-36-46-36-38-46-|
--46--------------46-46----46-46-46----46-46-46----46-46----|
--49--------------------------------------------------------|
------------------------------------------------------------|
------------------------------------------------------------|
------------------------------------------------------------|


   S  S  S  S  S  S  S  S  S  S  S  S  S  S  S  S  
--36-46-38-36-46-36-38-36-46-36-38-36-46-36-38-46-|
--46----46-46----46-46-46----46-46-46----46-46----|
--------------------------------------------------|
--------------------------------------------------|
--------------------------------------------------|
--------------------------------------------------|


   S  S  S  S  S  S  S  S  S  S  S  S  S  S  S  S  
--36-46-38-36-46-36-38-36-46-36-38-36-46-36-38-46-|
--46----46-46----46-46-46----46-46-46----46-46----|
--------------------------------------------------|
--------------------------------------------------|
--------------------------------------------------|
--------------------------------------------------|


                           |--3--|  |--3--|     |--3--|  |--3--|     |--3--|    
   S  S  S  S  S  S  S  S  T  T  T  T  T  T  S  T  T  T  T  T  T  S  T  T  T  S 
--36-46-38-36-46-36-38-36-38-38-38-38-38-38-38-38-38-38-38-38-38-38-38-38-38-38-
--46----46-46----46-46-46-------------------36-------------------36-------------
--------------------------------------------------------------------------------
--------------------------------------------------------------------------------
--------------------------------------------------------------------------------
--------------------------------------------------------------------------------


   S  S  S  S  S  S  S  S  S  S  S  S  S  S  S  S  
--36-46-38-36-46-36-38-36-46-36-38-36-46-36-38-46-|
--46----46-46----46-46-46----46-46-46----46-46----|
--49----------------------------------------------|
--------------------------------------------------|
--------------------------------------------------|
--------------------------------------------------|


   S  S  S  S  S  S  S  S  S  S  S  S  S  S  S  S  
--36-46-38-36-46-36-38-36-46-36-38-36-46-36-38-46-|
--46----46-46----46-46-46----46-46-46----46-46----|
--------------------------------------------------|
--------------------------------------------------|
--------------------------------------------------|
--------------------------------------------------|


   S  S  S  S  S  S  S  S  S  S  S  S  S  S  S  S  
--36-46-38-36-46-36-38-36-46-36-38-36-46-36-38-46-|
--46----46-46----46-46-46----46-46-46----46-46----|
--------------------------------------------------|
--------------------------------------------------|
--------------------------------------------------|
--------------------------------------------------|


   S  S  S  S  S  S  S  S  S. T  T  T  S. T  T  T  E   
--36-46-38-36-46-36-38-36-57-38-38--L-57-38-38--L-57--|
--46----46-46----46-46-46-49----------49----------49--|
------------------------------------------------------|
------------------------------------------------------|
------------------------------------------------------|
--------------------------36----------36----------36--|


   Verso Riff 2                                              
   S            S  S  S  S  S  S  S  S  S  S  S  S  S  S  S  
--36-----------44-38-36-44-36-38-36-44-36-38-36-44-36-38-44-|
--44--------------44-44----44-44-44----44-44-44----44-44----|
--49--------------------------------------------------------|
------------------------------------------------------------|
------------------------------------------------------------|
------------------------------------------------------------|


   S  S  S  S  S  S  S  S  S  S  S  S  S  S  T  T  T  T  
--36-44-38-36-44-36-38-36-44-36-38-36-44-36-38-38-38-38-|
--44----44-44----44-44-44----44-44-44----44-------------|
--------------------------------------------------------|
--------------------------------------------------------|
--------------------------------------------------------|
--------------------------------------------------------|


   E   E   S  S  E   E   S  E   S  E   
------38--36-36-38--57--38-57--38-57--|
--44--57--44-44-46--49-----49-----49--|
------49------------------------------|
--------------------------------------|
--------------------------------------|
--36----------------36-----36-----36--|


   E   E   S  S  E   X  X  T  T T  S  S  S  S  S  S  
--36--38--36-36-38--38-38-38-38---------45-45-43-43-|
--44--57--44-44-46----------------47-47-------------|
------49--------------------------------------------|
----------------------------------------------------|
----------------------------------------------------|
----------------------------------------------------|


   S  S  S  S  S  S  S  S  S  S  S  S  S  S  S  S  
--36-44-38-36-44-36-38-36-44-36-38-36-44-36-38-44-|
--44----44-44----44-44-44----44-44-44----44-44----|
--49----------------------------------------------|
--------------------------------------------------|
--------------------------------------------------|
--------------------------------------------------|


   S  S  S  S  S  S  S  S  S  S  S  S  S  S  T  T  T  T  
--36-44-38-36-44-36-38-36-44-36-38-36-44-36-38-38-38-38-|
--44----44-44----44-44-44----44-44-44----44-------------|
--------------------------------------------------------|
--------------------------------------------------------|
--------------------------------------------------------|
--------------------------------------------------------|


   E   E   S  S  E   E   S  E   S  E   
------38--36-36-38--57--38-57--38-57--|
--44--57--44-44-46--49-----49-----49--|
------49------------------------------|
--------------------------------------|
--------------------------------------|
--36----------------36-----36-----36--|


                                                        Coro A                  
   E   E   S  S  E   X  X  T  T T  S  S  S  S  S  S     H.           S  S  S S  
--36--38--36-36-38--38-38-38-38---------45-45-43-43-|--36--------------38-38---|
--44--57--44-44-46----------------47-47-------------|--44----------------------|
------49--------------------------------------------|--49----------------------|
----------------------------------------------------|--------------------------|
----------------------------------------------------|--------------------------|
----------------------------------------------------|--------------------------|


   H         S  E   E   S  E   
--36--------38-48--45--45-43--|
--44--------------------------|
--57--------------------------|
------------------------------|
------------------------------|
------------------------------|


   S  S  S  S  S  S  S  S  S  S  S  S  S  S  S  S  
--36-46-38-36-46-36-38-36-46-36-38-36-46-36-38-46-|
--46----46-46----46-46-46----46-46-46----46-46----|
--49----------------------------------------------|
--------------------------------------------------|
--------------------------------------------------|
--------------------------------------------------|


   S  S  S  S  S  S  E   X  X  T  T T  S  S  S  S  S  S  
--36-46-38-36-46-36-38--38-38-38-38---------45-45-------|
--46----46-46----46-46----------------47-47-------43-43-|
--------------------------------------------------------|
--------------------------------------------------------|
--------------------------------------------------------|
--------------------------------------------------------|


   H.           S  S  S S     H         S  E   E   S  E   
--36--------------38-38---|--36--------38-48--45--45-43--|
--44----------------------|--44--------------------------|
--49----------------------|--57--------------------------|
--------------------------|------------------------------|
--------------------------|------------------------------|
--------------------------|------------------------------|


   Outro                                     
   Q     S  S  S  S  S  S  S  S  S  S  S  S  
--36----36-36-36-36-36-36-36-36-36-36-36-36-|
--44----46-46-46-46-46-46-46-46-46-46-46-46-|
--49----------------------------------------|
--------------------------------------------|
--------------------------------------------|
--------------------------------------------|


   E   E   E   E   T  T  T  T  T  T  T  T  T  T  T  T  T  T  T  T  
--36--36--36--36--50-50-50-48-48-47-47-48-50-50-48-48-47-45-43-41-|
--46--46--46--46--36----------36----------36----------------------|
------------------46----------46----------46----------------------|
------------------------------------------------------------------|
------------------------------------------------------------------|
------------------------------------------------------------------|


      |--3--|           |--3--|                                            
   S  S  S  S  S  S  S  S  S  S  S  S  T  T  T  T  T  T  T  T  T  T  T  T  
--38-38-38-38-36-38-38-38-38-38-36-38-38-38-47-45-43-41-43-48-47-45-43-41-|
--------------------------------------------------------------------------|
--------------------------------------------------------------------------|
--------------------------------------------------------------------------|
--------------------------------------------------------------------------|
--------------------------------------------------------------------------|


   |--3--|  |--3--|  |--3--|                                              
   S  S  S  S  S  S  S  S  S  S  S  E   E   E   E      W                  
--38-38-38-50-48-48-47-45-43-43-43-41--41--41--41--|--36----------------||
---------------------------------------------------|--44----------------||
---------------------------------------------------|--46----------------||
---------------------------------------------------|--49----------------||
---------------------------------------------------|--------------------||
---------------------------------------------------|--------------------||            
Submit corrections

↑ Back to top | Tablatures and chords for acoustic guitar and electric guitar, ukulele, drums are parodies/interpretations of the original songs. You may use it for private study, scholarship, research or language learning purposes only