» » »

Iron Maiden - MontséGur Tabs

Artists:  A B C D E F G H I J K L M N O P Q R S T U V W X Y Z # 

MontséGur Tabs

(ver. 2) Click to play this song!
Iron Maiden
 Rating:
4/5 (4 votes)

 MontséGur lessons Tabs too difficult? Try these video lessons and learn fast
 
                Song- Montsegur
Artist- Iron Maiden
Album- Dance of Death

I have found tabs that are pretty good, but they have some mistakes that i wanted to 
correct, so I made this tab. Please be generous when ratin, this is my first tab.


Intro

e -------------------------------------|
B -------------------------------------|
G -------------------------------------|
D -------------------------------------|
A --------------------0h2--------------|
E -0-0-0-2-0-0-3-0-0-------------------|

e -------------------------------------|
B -------------------------------------|
G -------------------------------------|
D -------------------------------------|
A -------------------5-3-2~------------|
E -0-0-0-2-0-0-3-0-0-------------------|

e -------------------------------------|
B -------------------------------------|
G -------------------------------------|
D -------------------------------------|
A --------------------0h2--------------|
E -0-0-0-2-0-0-3-0-0-------------------|

e -------------------------------------|
B -------------------------------------|
G -------------------------------------|
D -------------------------------------|   x4
A -5-5-5-3-3-3-2-5-3-2-0-2-------------|
E -------------------------------------|

Guitar 2
(Starts when the first guitar starts the third repetition)
e -------------------------------------|
B -------------------------------------|
G -------------------------------------|
D -------------------------------------|
A -------------------------------------|
E -3-3-3-3-3-3-3-3-3-3-----------------|

e -------------------------------------|
B -------------------------------------|
G -------------------------------------|
D -------------------------------------|
A -------------------------------------|
E -3-3-3-3-3-3-3-3-3-3-----------------|

e -------------------------------------|
B -------------------------------------|
G -------------------------------------|
D -------------------------------------|
A -------------------------------------|
E -3-3-3-3-3-3-3-3-3-3-----------------|

e -------------------------------------|
B -------------------------------------|
G -------------------------------------|
D -------------------------------------|   x2
A -5-5-5-3-3-3-2-5-3-2-0-2-------------|
E -------------------------------------|

Riff 1
e ------------------------------------------------------|
B ------------------------------------------------------|
G -------------------------5----------------------------|
D -----2-----5------5----5--------4------5--------2ring-|   x2
A ---2-----5------5----3--------4------5----------2-----|
E -0-----2------3-------------2------3------0-0-0-0-----|

e -----------------------------------------------|
B -----------------------------------------------|
G --------------5-5-5-5-7-7-9-9--9-7-------------|
D -2-2-4-4-5-5--5-5-5-5-7-7-9-9--9-7-------------|   x2
A -2-2-4-4-5-5--3-3-3-3-5-5-7-7--7-5-------------|
E -0-0-2-2-3-3-----------------------------------|

Riff 2

e -------------------------------------|
B -12-10------10-----------------------|
G -------12------12-11---12-11---------|
D -----------------------------10ring--|
A -------------------------------------|
E -------------------------------------|

e -------------------------------------|
B -----------10---------12-10----------|
G -12-11-9------12-11---------12ring---|
D -------------------------------------|
A -------------------------------------|
E -------------------------------------|

e -------------------------------------|
B -12-10------10-----------------------|
G -------12------12-11---12-11---------|
D -----------------------------10ring--|
A -------------------------------------|
E -------------------------------------|

e -------------------------------------|
B -------------------------------------|
G -12-11-9-----------------------------|
D -----------12-10-9-------------------|        x2
A -------------------------------------|
E ---------------------10-8-6-ring-----|


Riff 3

e -------------------------------------|
B -------------9-10-12-10--------------|
G -9-11-9-9-11------------11-----------|
D -------------------------------------|
A -------------------------------------|
E -------------------------------------|

e -------------------------------------|
B -----------7-9-10-9------------------|
G -7-9-7-7-9----------9----------------|
D -------------------------------------|       x4
A -------------------------------------|
E -------------------------------------|

Riff 4
e ------------------------------------------------------|
B ------------------------------------------------------|
G -------------------------5----------------------------|
D -----2-----4------5----5--------4------5--------2ring-|   x2
A ---2-----4------5----3--------4------5----------2-----|
E -0-----2------3-------------2------3------0-0-0-0-----|

e --------------------------------------------------|
B --------------------------------------------------|
G ------------------------5-----5------7------9ring-|
D -----2-----4-----5----5-----5------7------9-------|
A ---2-----4-----5----3-----3------5------7---------|
E -0-----2-----3------------------------------------|

Riff 6

e -------------------------------------|
B -12-10------10-----------------------|
G -------12------12-11---12-11---------|
D -----------------------------10ring--|
A -------------------------------------|
E -------------------------------------|

e -------------------------------------|
B -----------10---------12-10----------|
G -12-11-9------12-11---------12ring---|
D -------------------------------------|        x3
A -------------------------------------|
E -------------------------------------|

e -------------------------------------|
B -12-10------10-----------------------|
G -------12------12-11---12-11---------|
D -----------------------------10ring--|
A -------------------------------------|
E -------------------------------------|

e -------------------------------------|
B -----------10------------------------|
G -12-11-9------12-11------------------|
D -------------------------------------|
A -------------------------------------|
E ----------------------10-8-6---------|





Riff 7

e -------------------------------------|
B --5h7p5p3-5-7-5~--1h3p0-2-4-2~-------|
G -------------------------------------|
D -------------------------------------|
A -------------------------------------|
E -------------------------------------|

e --------------------7-10-------------|
B --5h7p5p3-5-7-5~--8------10----------|
G -------------------------------------|
D -------------------------------------|
A -------------------------------------|
E -------------------------------------|

e ----------------------------7-5~--------------------|
B -5h7p5p3-5-7-5~---5h7p5p3-5-------------------------|
G ----------------------------------------------------|
D ----------------------------------------------------|
A ----------------------------------------------------|
E ----------------------------------------------------|

e --------------------7-10-------------|
B --5h7p5p3-5-7-5~--8------10----------|
G -------------------------------------|
D -------------------------------------|
A -------------------------------------|
E -------------------------------------|

e -------------------------------------|
B --7h9p7p5-7-9-7~--3h5p2-4-6-4~-------|
G -------------------------------------|
D -------------------------------------|
A -------------------------------------|
E -------------------------------------|

e ---------------------9-12------------|
B --7h9p7p5-7-9-7~--10------12---------|
G -------------------------------------|
D -------------------------------------|
A -------------------------------------|
E -------------------------------------|

e ----------------------------9-7~--------------------|
B -7h9p7p5-7-9-7~---7h9p7p5-7-------------------------|
G ----------------------------------------------------|
D ----------------------------------------------------|
A ----------------------------------------------------|
E ----------------------------------------------------|

e ---------------------9-12------------|
B --7h9p7p5-7-9-7~--10------12---------|
G -------------------------------------|
D -------------------------------------|
A -------------------------------------|
E -------------------------------------|


Song Progression

Intro

Riff 1
I stand alone in this desolate space,
In death they are truly alive.
Massacred innocence, evil took place,
the angels were burning inside.
Centuries later, i wonder why
What secret they took to their grave,
still burning heretics under our skies,
Religion still burning inside.

Riff 2
At the gates at the walls of montsegur
Blood on the stones of the citadel(x4)

Riff 3
As we kill them all so god will know his own
the innocents died for the pope on his throne
catholic greed and its paranoid zeal,
gurse of the grail and the blood of the cross
Templar relievers with blood on their hands
joined in the chorus to kill on demand
Burned at the stake for their souls liberty
to stand with the cathars to die and be free

Riff 1
The book of old testament crippled and black
Satan his weapon is lust
living this evil damnation of flesh
back to the torture of life

The perfect would willingly die at the stake
and all of their followers slain
As for the knowledge of god they have claimed
religion still burning inside

Riff 2
At the gates at the walls of montseguer
Blood on the stones of the citadel(x4)

Riff 3
AS we kill them all so god will know his own
laugh at the darkness and in god we trust
The eye of the the triangle smiling with sin
no passover feast for the cursed within

Facing the sun as they went to their grave
burn like a dog or you live like a slave
Death is the price for your souls liberty
To stand with the cathars to die and be free

Intro

Solo (sorry couldn't tab it)
Under the solo is played Riff 4

Riff 6

Riff 7

Riff 3
As we kill them all so God WILL know his own. Laugh at the darkness and in God we trust.
The eye of the triangle smiling with sin. No passover feast for the curse of within.

Facing the sun as they went to their grave. Burn like a dog or you live like a slave.
Death is the price for your soul's liberty. To stand with the Cathars and to die and be free.

Riff 3
At the gates and the walls of Montségur. Blood on the stones of the citadel.
At the gates and the walls of Montségur. Blood on the stones of the citadel.
At the gates and the walls of Montségur. Blood on the stones of the citadel.
At the gates and the walls of Montségur. Blood on the stones of the citadel.
            
Submit corrections


        MontséGur lessons Hard to play? Try these video lessons and learn fast MontséGur lessons
        
↑ Back to top | Tablatures and chords for acoustic guitar and electric guitar, ukulele, drums are parodies/interpretations of the original songs. You may use it for private study, scholarship, research or language learning purposes only