Home » I » Iron Maiden »

Iron Maiden - Iron Maiden Bass

Artists:  A B C D E F G H I J K L M N O P Q R S T U V W X Y Z # 

Iron Maiden Bass

(ver. 2) Click to play this song!
Iron Maiden
 Rating:
3.7/5 (23 votes)
                         Intro                                                     
     S    W                   W                   W                 
G||----|-------------------|-------------------|-------------------|
D||----|-------------------|-------------------|-------------------|
A||----|-------------------|-------------------|-------------------|
E||----|-------------------|-------------------|-------------------|


                      Riff A                                
  W                   S      S S S S S S S S S S S S S S S  
-------------------|-------------------------------5---5---|
-------------------|--7------7-7-7-7-7-7-7-7-7-7-7---7---7-|
-------------------|---------------------------------------|
-------------------|---------------------------------------|


  S S S S S S S S S S S S S S S S    S S S S S S S S S S S S S S S S  
--------------------------5---4-5-|--------------------------5-7-5---|
--5-5-5-5-5-5-5-5-5-5-5-5---7-----|--7-7-7-7-7-7-7-7-7-7-7-7-------7-|
----------------------------------|----------------------------------|
----------------------------------|----------------------------------|


                                     Verso Riff                                
  S S S S S S S S S S S S S S S S    S          S S S S S S S S S S S S S S S  
------------------------------4-5-|-------------------------------------------|
--5-5-5-5-5-5-5-5---5---5---5-----|--7----------7-7-7-7-7-7-7-7-7-7-7-7-7-7-7-|
----------------------------------|-------------------------------------------|
----------------------------------|-------------------------------------------|


  S S S S S S S S S S S S S S S S    S S S S S S S S S S S S S S S S  
----------------------------------|----------------------------------|
--5-5-5-5-5-5-5-5-5-3---5-3---3-5-|--7-7-7-7-7-7-7-7-7-7-7-7-7-7-7-7-|
----------------------5-----5-----|----------------------------------|
----------------------------------|----------------------------------|


  S S S S S S S S S S S S S S S S    S S S S S S S S S S S S S S S S  
----------------------------------|----------------------------------|
--5-5-5-5-5-5-5-5-5-3---5-3---5-5-|--7-7-7-7-7-7-7-7-7-7-7-7-7-7-7-7-|
----------------------5-----5-----|----------------------------------|
----------------------------------|----------------------------------|


  S S S S S S S S S S S S S S S S    S S S S S S S S S S S S S S S S  
----------------------------------|----------------------------------|
--5-5-5-5-5-5-5-5-5-3---5-3---3-5-|--7-7-7-7-7-7-7-7-7-7-7-7-7-7-7-7-|
----------------------5-----5-----|----------------------------------|
----------------------------------|----------------------------------|


                                     Riff A                               
  S S S S S S S S S S S S S S S S    S      S S S S S S S S S S S S S E   
----------------------------------|-------------------------------5-4----|
--5-5-5-5-5-5-5-5-5-3---5-3---5-5-|--7------7-7-7-7-7-7-7-7-7-7-7-----7--|
----------------------5-----5-----|--------------------------------------|
----------------------------------|--------------------------------------|


  S S S S S S S S S S S S S S S S    S S S S S S S S S S S S S S S S  
--------------------------5---4-5-|--------------------------5-7-5---|
--5-5-5-5-5-5-5-5-5-5-5-5---7-----|--7-7-7-7-7-7-7-7-7-7-7-7-------7-|
----------------------------------|----------------------------------|
----------------------------------|----------------------------------|


                                     Coro                         
  S S S S S S S S S S S S S S S S    E    S E  S E  E  S E  S E   
----------------------------------|------------------------------|
--5-5-5-5-5-5-5-5---5---3---3-----|------------------------------|
------------------------------5-3-|--3----3-3--3-5----------2-3--|
----------------------------------|-----------------3--3-3-------|


  E  S E  S S S S S S S S S E     E  S E  S E  E  S E  S E   
-------------------------------|----------------------------|
-------5--7-5------------------|----------------------------|
--5--5--------5-3---3---3------|--3--3-3--3-5----------2-3--|
------------------5---5---5-3--|---------------3--3-3-------|


  E  S E  S E  S S S S S S E     E  S E  S E  E  S E  S E   
------------------------------|----------------------------|
------------------------------|----------------------------|
--5--5-5--5-5--3---3---3------|--3--3-3--3-5----------2-3--|
-----------------5---5---5-3--|---------------3--3-3-------|


  E  S S S S S S S S S S S S S S    E  S E  S E  E  S E  S E   
-----------7-5---5---------------|----------------------------|
-------5-7-----7---7-5---5-------|----------------------------|
--5--5-----------------7---7-7-5-|--3--3-3--3-5----------2-3--|
---------------------------------|---------------3--3-3-------|


                                 Riff A                               
  E  S E  S E  S S S S S S E     S      S S S S S S S S S S S S S E   
------------------------------|---------------------------------5----|
------------------------------|--7------7-7-7-7-7-7-7-7-7-7-7-7---7--|
--5--5-5--5-5--3---3---3---3--|--------------------------------------|
-----------------5---5---5----|--------------------------------------|


  S S S S S S S S S S S S S S S S    S S S S S S S S S S S S S S S S  
--------------------------5---4-5-|--------------------------5-7-5---|
--5-5-5-5-5-5-5-5-5-5-5-5---7-----|--7-7-7-7-7-7-7-7-7-7-7-7-------7-|
----------------------------------|----------------------------------|
----------------------------------|----------------------------------|


                                     Verso Riff                                
  S S S S S S S S S S S S S S S S    S          S S S S S S S S S S S S S S S  
------------------------------4-5-|-------------------------------------------|
--5-5-5-5-5-5-5-5---5---5---5-----|--7----------7-7-7-7-7-7-7-7-7-7-7-7-7-7-7-|
----------------------------------|-------------------------------------------|
----------------------------------|-------------------------------------------|


  S S S S S S S S S S S S S S S S    S S S S S S S S S S S S S S S S  
----------------------------------|----------------------------------|
--5-5-5-5-5-5-5-5-5-3---5-3---3-5-|--7-7-7-7-7-7-7-7-7-7-7-7-7-7-7-7-|
----------------------5-----5-----|----------------------------------|
----------------------------------|----------------------------------|


  S S S S S S S S S S S S S S S S    S S S S S S S S S S S S S S S S  
----------------------------------|----------------------------------|
--5-5-5-5-5-5-5-5-5-3---5-3---5-5-|--7-7-7-7-7-7-7-7-7-7-7-7-7-7-7-7-|
----------------------5-----5-----|----------------------------------|
----------------------------------|----------------------------------|


  S S S S S S S S S S S S S S S S    S S S S S S S S S S S S S S S S  
----------------------------------|----------------------------------|
--5-5-5-5-5-5-5-5-5-3---5-3---3-5-|--7-7-7-7-7-7-7-7-7-7-7-7-7-7-7-7-|
----------------------5-----5-----|----------------------------------|
----------------------------------|----------------------------------|


                                     Coro                         
  S S S S S S S S S S S S S S S S    E    S E  S E  E  S E  S E   
----------------------------------|------------------------------|
--5-5-5-5-5-5-5-5-5-3---5-3---3---|------------------------------|
----------------------5-----5---5-|--3----3-3--3-5----------2-3--|
----------------------------------|-----------------3--3-3-------|


  E  S E  S S S S S S S S S E     E  S E  S E  E  S E  S E   
-------------------------------|----------------------------|
-------5--7-5------------------|----------------------------|
--5--5--------5-3---3---3------|--3--3-3--3-5----------2-3--|
------------------5---5---5-3--|---------------3--3-3-------|


  E  S E  S E  S S S S S S E     E  S E  S E  E  S E  S E   
------------------------------|----------------------------|
------------------------------|----------------------------|
--5--5-5--5-5--3---3---3------|--3--3-3--3-5----------2-3--|
-----------------5---5---5-3--|---------------3--3-3-------|


  E  S S S S S S S S S S S S S S    E  S E  S E  E  S E  S E   
-----------7-5---5---------------|----------------------------|
-------5-7-----7---7-5---5-------|----------------------------|
--5--5-----------------7---7-7-5-|--3--3-3--3-5----------2-3--|
---------------------------------|---------------3--3-3-------|


  Break                                                         
  W                   W                   H.           E   E    
-------------------|-------------------|-----------------------|
-------------------|-------------------|-----------------------|
--5----------------|-------------------|------------------12\--|
-------------------|-------------------|-----------------------|


    Interludio                                               
    E.         E.  E.  E.  E  E     E.  E.  E.  E.  E  E   3x
|--------------------------------|------------------5--7---||
|*-------------------------2--3--|--0---2---3---5---------*||
|*--0----------2---3---5---------|------------------------*||
|--------------------------------|-------------------------||


                      Bass Riff                              
  W                   S         S S S S S S S S S S S E  E   
-------------------|--9---------------7---5-----5-----------|
--7----------------|------------7---7-------5-----5---------|
-------------------|----------------------------------5--3--|
-------------------|----------------------------------------|


  S S S S S S S S S S S S E  E     S S S S S S S S S S S S E  E   
--9-------7---5-----5-----------|--9-------7---5-----5-----------|
----7---7-------5-----5---------|----7---7-------5-----5---------|
--------------------------5--3--|--------------------------5--3--|
--------------------------------|--------------------------------|


                             Intro Riff                            
  S S S S S S Q    Q.        W                   W                 
--------------------------|-------------------|-------------------|
--------------------------|-------------------|-------------------|
--5-5-5-5-5---3-----------|-------------------|-------------------|
--------------------------|-------------------|-------------------|


                                          Riff A                                
  W                   W                   S      S S S S S S S S S S S S S S S  
-------------------|-------------------|-------------------------------5---5---|
-------------------|-------------------|--7------7-7-7-7-7-7-7-7-7-7-7---7---7-|
-------------------|-------------------|---------------------------------------|
-------------------|-------------------|---------------------------------------|


  S S S S S S S S S S S S S S S S    S S S S S S S S S S S S S S S S  
--------------------------5---4-5-|--------------------------5-7-5---|
--5-5-5-5-5-5-5-5-5-5-5-5---7-----|--7-7-7-7-7-7-7-7-7-7-7-7-------7-|
----------------------------------|----------------------------------|
----------------------------------|----------------------------------|


                                     Verso Riff                                
  S S S S S S S S S S S S S S S S    S          S S S S S S S S S S S S S S S  
------------------------------4-5-|-------------------------------------------|
--5-5-5-5-5-5-5-5---5---5---5-----|--7----------7-7-7-7-7-7-7-7-7-7-7-7-7-7-7-|
----------------------------------|-------------------------------------------|
----------------------------------|-------------------------------------------|


  S S S S S S S S S S S S S S S S    S S S S S S S S S S S S S S S S  
----------------------------------|----------------------------------|
--5-5-5-5-5-5-5-5-5-3---5-3---3-5-|--7-7-7-7-7-7-7-7-7-7-7-7-7-7-7-7-|
----------------------5-----5-----|----------------------------------|
----------------------------------|----------------------------------|


  S S S S S S S S S S S S S S S S    S S S S S S S S S S S S S S S S  
----------------------------------|----------------------------------|
--5-5-5-5-5-5-5-5-5-3---5-3---5-5-|--7-7-7-7-7-7-7-7-7-7-7-7-7-7-7-7-|
----------------------5-----5-----|----------------------------------|
----------------------------------|----------------------------------|


  S S S S S S S S S S S S S S S S    S S S S S S S S S S S S S S S S  
----------------------------------|----------------------------------|
--5-5-5-5-5-5-5-5-5-3---5-3---3-5-|--7-7-7-7-7-7-7-7-7-7-7-7-7-7-7-7-|
----------------------5-----5-----|----------------------------------|
----------------------------------|----------------------------------|


                                     Coro                         
  S S S S S S S S S S S S S S S S    E    S E  S E  E  S E  S E   
----------------------------------|------------------------------|
--5-5-5-5-5-5-5-5-5-3---5-3---3---|------------------------------|
----------------------5-----5---5-|--3----3-3--3-5----------2-3--|
----------------------------------|-----------------3--3-3-------|


  E  S E  S S S S S S S S S E     E  S E  S E  E  S E  S E   
-------------------------------|----------------------------|
-------5--7-5------------------|----------------------------|
--5--5--------5-3---3---3------|--3--3-3--3-5----------2-3--|
------------------5---5---5-3--|---------------3--3-3-------|


  E  S E  S E  S S S S S S E     E  S E  S E  E  S E  S E   
------------------------------|----------------------------|
------------------------------|----------------------------|
--5--5-5--5-5--3---3---3------|--3--3-3--3-5----------2-3--|
-----------------5---5---5-3--|---------------3--3-3-------|


  E  S S S S S S S S S S S S S S    E  S E  S E  E  S E  S E   
-----------7-5---5---------------|----------------------------|
-------5-7-----7---7-5---5-------|----------------------------|
--5--5-----------------7---7-7-5-|--3--3-3--3-5----------2-3--|
---------------------------------|---------------3--3-3-------|


  Outro                                            
        |-3-| |-3-| |-3-| |-3-| |-3-| |-3-| |-3-|  
  E     S S S S S S S S S S S S S S S S S S S S S  
--------------------------------------------------|
--------------------------------------------------|
--5-----5-5-5-5-5-5-5-5-5-5-5-5-5-5-5-5-5-5-5-5-5-|
--------------------------------------------------|


  |-3-| |-3-| |-3-| |-3-| |-3-| |-3-|       
  S S S S S S S S S S S S S S S S S S Q     
-------------------------------------------|
-------------------------------------------|
--5-5-5-5-5-5-5-5-5-5-5-5-5-5-5-5-5-5-5----|
-------------------------------------------|


  |--3-|  |-3-|    |-------3------|    
  Q    E  E   Q    E  E   Q    E  E    
--------------------------------------|
--------------------------------------|
--------------------------------------|
-------5--L\-------5--L\-------5--L\--|


  |--3-|  |-3-|    |-3| |-3-| |-3-| |-3-|  
  Q    E  E   Q    E  S S S S S S S S S S  
----------------------------------------5-|
------------------------------------5-7---|
--------------------------------5-7-------|
-------5--L\-------5--5-5-5-5-7-----------|


  |--3--|  |--3--|  |--3--|  |--3--|  |--3--|  |--3--|  |--3--|  |--3--|  
  S  S  S  S  S  S  S  S  S  S  S  S  S  S  S  S  S  S  S  S  S  S  S  S  
--7-14-14-14-14-12-12-12-12-14-14-14-14-12-12-12-12----------------------|
----------------------------------------------------14-14-14-14-12-12-12-|
-------------------------------------------------------------------------|
-------------------------------------------------------------------------|


   |--3--|  |--3--|  |--3-| |-3-| |-3-| |-3-| |-3-| |-3-|  
   S  S  S  S  S  S  S  S S S S S S S S S S S S S S S S S  
----------------------------------------------------------|
--12-12-10-10-10-10-10-10-9-9-9-9-9-7-7-7-7-7-7-----------|
----------------------------------------------------------|
------------------------------------------------5-5-5-5-5-|


  E.  E.   E  H          
-----------------------||
-----------------------||
-----------------------||
--5---L\---------------||            
Submit corrections

↑ Back to top | Tablatures and chords for acoustic guitar and electric guitar, ukulele, drums are parodies/interpretations of the original songs. You may use it for private study, scholarship, research or language learning purposes only