» » »

Iron Maiden - Genghis Khan Drum

Artists:  A B C D E F G H I J K L M N O P Q R S T U V W X Y Z # 

Genghis Khan Drum

(ver. 2) Click to play this song!
Iron Maiden
 Rating:
2.2/5 (30 votes)

 Genghis Khan lessons Tabs too difficult? Try these video lessons and learn fast
 
                     S  
C||----|
C||----|
C||----|
C||----|
C||----|
C||----|


     |--3--|  |--3--|  |--3--|  |--3--|  |--3--|  |--3--|  |--3--|  |--3--|  
     S  S  S  S  S  S  S  S  S  S  S  S  S  S  S  S  S  S  S  S  S  S  S  S  
|---48-48-48-48-48-48-47-47-47-47-47-47-45-45-45-45-45-45-43-43-43-43-43-43-|
|---------------------------------------------------------------------------|
|*--------------------------------------------------------------------------|
|*--------------------------------------------------------------------------|
|---------------------------------------------------------------------------|
|---------------------------------------------------------------------------|


      |-----3----|     |-----3----|     |-----3----|               
      E   E   S  S     E   E   S  S     E   E   S  S     E   E     
--38g38--36--36-36-38g38--36--36-36-38g38--36--36-36-38g38--36---||
-----------------------------------------------------------------||
----------------------------------------------------------------*||
----------------------------------------------------------------*||
-----------------------------------------------------------------||
-----------------------------------------------------------------||


    E   E   E   E   E   E   E   E      E   E   E   E   E   E   E   E     
---36--44--38--44--36--44--38--44--|--36--44--38--38--36--44--38--44---||
---44------44------44------44------|--44------44--44--44------44-------||
*--49------------------------------|----------------------------------*||
*----------------------------------|----------------------------------*||
-----------------------------------|-----------------------------------||
-----------------------------------|-----------------------------------||


   E   E   E   E   E   E   E   E        E   E   E   E   E   E   E   E   
--36--44--38--38--36--44--38--44--||---36--44--38--44--36--44--38--44--|
--44------44--44--44------44------||---44------44------44------44------|
----------------------------------||*--49------------------------------|
----------------------------------||*----------------------------------|
----------------------------------||-----------------------------------|
----------------------------------||-----------------------------------|


   E   E   E   E   E   E   E   S  S       E   E   E   E   E   E   E   S  S  
--36--44--38--38--36--44--38--47-45--||--36--44--38--38--36--44--38--47-45-|
--44------44--44--44------44---------||--44------44--44--44------44--------|
------------------------------------*||------------------------------------|
------------------------------------*||------------------------------------|
-------------------------------------||------------------------------------|
-------------------------------------||------------------------------------|


     E   E   E   E   E   E   E   E      E   E   E   E   E   E   E   E   
|---36--44--38--44--36--44--38--44--|--36--44--38--38--36--44--38--44--|
|---44------44------44------44------|--44------44--44--44------44------|
|*--49------------------------------|----------------------------------|
|*----------------------------------|----------------------------------|
|-----------------------------------|----------------------------------|
|-----------------------------------|----------------------------------|


   E   E   E   E   E   E   E   E      E   E   E   E   E   E   E   E   
--36--44--38--44--36--44--38--44--|--36--44--38--38--36--44--38--44--|
--44------44------44------44------|--44------44--44--44------44------|
--49------------------------------|----------------------------------|
----------------------------------|----------------------------------|
----------------------------------|----------------------------------|
----------------------------------|----------------------------------|


     E   E   E   E   E   E   E   E      E   E   E   E   E   E   E   S  S    
|---36--44--38--44--36--44--38--44--|--36--44--38--38--36--44--38--47-45--||
|---44------44------44------44------|--44------44--44--44------44---------||
|*--49------------------------------|------------------------------------*||
|*----------------------------------|------------------------------------*||
|-----------------------------------|-------------------------------------||
|-----------------------------------|-------------------------------------||


   E   E   E   E   E   E   E   S  S  
--36--44--38--38--36--44--38--47-45-|
--44------44--44--44------44--------|
------------------------------------|
------------------------------------|
------------------------------------|
------------------------------------|


         |--3--|              |--3--|          
     E   S  S  S  E   E   E   S  S  S  E   E   
|---36--38-38-38-38--38--36--38-38-38-38--38--|
|---44-------------------44-------------------|
|*--49-------------------49-------------------|
|*--------------------------------------------|
|---------------------------------------------|
|---------------------------------------------|


       |--3--|                              
   E   S  S  S  E   E   E   S  E   S  E   3x
--36--38-38-38-38--38--38--36-38--36-38---||
--44-------------------44-----44-----44---||
--49-------------------49-----57-----49--*||
-----------------------------------------*||
------------------------------------------||
------------------------------------------||


       |--3--|              |--3--|                 |--3--|          
   E   S  S  S  E   E   E   S  S  S  E   E      E   S  S  S  E   E   
--36--38-38-38-38--38--36--38-38-38-38--38--|--36--38-38-38-38--38--|
--44-------------------44-------------------|--44-------------------|
--49-------------------49-------------------|--49-------------------|
--------------------------------------------|-----------------------|
--------------------------------------------|-----------------------|
--------------------------------------------|-----------------------|


     S  S  S  S  S  S  S  S  S  S  S  S  S  S  S  S  S  S  S  S  S  S  S  S    
|---36----36-38-59-38-36-59-36-38-59-38-36-59-36-38-59-38-36-59-36-38-59-38--||
|---44-59-44-44----44-44----44-44----44-44----44-44----44-44----44-44----44--||
|*--49----51-51----51-51----51-51----51-51----51-51----51-51----51-51----51-*||
|*--------------------------------------------------------------------------*||
|----------------------------------------------------------------------------||
|----------------------------------------------------------------------------||


    S  S  S  S  S  S  S  S  S  S  S  S  S  S  S  S  S  S  S  S  S  S  S  S    
---36-59-36-38-59-38-36-59-36-38-59-38-36-59-36-38-59-38-36-59-36-38-59-38--||
---44----44-44----44-44----44-44----44-44----44-44----44-44----44-44----44--||
*--49----51-51----51-51----51-51----51-51----51-51----51-51----51-51----51-*||
*--------------------------------------------------------------------------*||
----------------------------------------------------------------------------||
----------------------------------------------------------------------------||


    S  S  S  S  S  S  S  S  S  S  S  S  S  S  S  S  S  S  S  S  S  S  S  S    
---36-59-36-38-59-38-36-59-36-38-59-38-36-59-36-38-59-38-38-59-36-38-59-38--||
---44----44-44----44-44----44-44----44-44----44-44----44-44----44-44----44--||
*--49----51-51----51-51----51-51----51-51----51-51----51-51----51-51----51-*||
*--------------------------------------------------------------------------*||
----------------------------------------------------------------------------||
----------------------------------------------------------------------------||


    S  S  S  S  S  S  S  S  S  S  S  S  S  S  S  S  S  S  S  S  S  S  S  S    
---36-59-36-38-59-38-36-59-36-38-59-38-36-59-36-38-59-38-36-59-36-38-59-38--||
---44----44-44----44-44----44-44----44-44----44-44----44-44----44-44----44--||
*--49----51-51----51-51----51-51----51-51----51-51----51-51----51-51----51-*||
*--------------------------------------------------------------------------*||
----------------------------------------------------------------------------||
----------------------------------------------------------------------------||


   S  S     S  S  S  S  
--36-59-|--36-38-59-38-|
--44----|--44-44----44-|
--49----|--51-51----51-|
--------|--------------|
--------|--------------|
--------|--------------|


   S  S  S  S  S  S  S  S  S  S  S  S  S  S  S  S  S  S  S  S  S  S  S  S  
--36-59-36-38-59-38-36-59-36-38-59-38-36-44-36-47-45-43-36-44-47-45-43-38-|
--44----44-44----44-44----44-44----44-44-59----51-51-51-44----51-51-51-44-|
--49----51-51----51-51----51-51----51-51-------------------------------51-|
-----------------------------------49-------------------------------------|
--------------------------------------------------------------------------|
--------------------------------------------------------------------------|


   S  S  S  S  S  S  S  S  S  S  S  S  S  S  S  S  S  S  S  S  S  S  S  S  
--36-59-36-38-59-38-36-59-36-38-59-38-36-44-36-47-45-43-36-44-47-45-43-38-|
--44----44-44----44-44----44-44----44-44-59----51-51-51-44----51-51-51-44-|
--49----51-51----51-51----51-51----51-51-------------------------------51-|
-----------------------------------49-------------------------------------|
--------------------------------------------------------------------------|
--------------------------------------------------------------------------|


   S  S  S  S  S  S  S  S  S  S  S  S  S  S  S  S  S  S  S  S  S  S  S  S  
--36-59-36-38-59-38-36-59-36-38-59-38-36-44-36-47-45-43-36-44-47-45-43-38-|
--44----44-44----44-44----44-44----44-44-59----51-51-51-44----51-51-51-44-|
--49----51-51----51-51----51-51----51-51-------------------------------51-|
-----------------------------------49-------------------------------------|
--------------------------------------------------------------------------|
--------------------------------------------------------------------------|


     S  S  S  S  S  S  S  S  S  S  S  S  S  S  S  S  S  S  S  S  S  S  S  S  3x
|---36-59-36-38-59-38-36-59-36-38-59-38-36-44-36-47-45-43-36-44-47-45-43-38--||
|---44----44-44----44-44----44-44----44-44-59----51-51-51-44----51-51-51-44--||
|*--49----51-51----51-51----51-51----51-51-------------------------------51-*||
|*-----------------------------------49-------------------------------------*||
|----------------------------------------------------------------------------||
|----------------------------------------------------------------------------||


   S  S  S  S  S  S  S  S  S  S  S  S  S  S  S  S  S  S  S  S  S  S  S  S  
--36-59-36-38-59-38-36-59-36-38-59-38-36-44-36-47-45-43-36-44-47-45-43-38-|
--44----44-44----44-44----44-44----44-44-59----51-51-51-44----51-51-51-44-|
--49----51-51----51-51----51-51----51-51-------------------------------51-|
-----------------------------------49-------------------------------------|
--------------------------------------------------------------------------|
--------------------------------------------------------------------------|


   S  S  S  S  S  S  S  S  S  S  S  S  S  S  S  S  S  S  S  S  S  S  S  S  
--36-59-36-38-59-38-36-59-36-38-59-38-36-44-36-47-45-43-36-44-47-45-43-38-|
--44----44-44----44-44----44-44----44-44-59----51-51-51-44----51-51-51-44-|
--49----51-51----51-51----51-51----51-51-------------------------------51-|
-----------------------------------49-------------------------------------|
--------------------------------------------------------------------------|
--------------------------------------------------------------------------|


   S  S     S  S  S  S  S  S  S  S  S  S  S  S  S  S  S  S  
--36-59-|--36-38-59-38-36-59-36-38-59-38-36-59-36-38-59-38-|
--44----|--44-44----44-44----44-44----44-44----44-44----44-|
--49----|--51-51----51-51----51-51----51-51----51-51----51-|
--------|--------------------------------------------------|
--------|--------------------------------------------------|
--------|--------------------------------------------------|


   S  S  S  S  S  S  S  S  S  S  S  S  S  S  S  S  S  S  S  S  S  S  S  S  
--36-59-36-38-59-38-36-59-36-38-59-38-36-59-36-38-59-38-36-59-36-38-59-38-|
--44----44-44----44-44----44-44----44-44----44-44----44-44----44-44----44-|
--49----51-51----51-51----51-51----51-51----51-51----51-51----51-51----51-|
--------------------------------------------------------------------------|
--------------------------------------------------------------------------|
--------------------------------------------------------------------------|


     S  S  S  S  S  S  S  S  S  S  S  S  S  S  S  S  S  S  S  S  S  S  S  S    
|---36-59-36-38-59-38-36-59-36-38-59-38-36-59-36-38-59-38-36-59-36-38-59-38--||
|---44----44-44----44-44----44-44----44-44----44-44----44-44----44-44----44--||
|*--49----51-51----51-51----51-51----51-51----51-51----51-51----51-51----51-*||
|*--------------------------------------------------------------------------*||
|----------------------------------------------------------------------------||
|----------------------------------------------------------------------------||


   E      E   E   E   E   E   E   E   E      E   E   E   E   E   E   E   E   
--36--|--36------38------36------38--38--|--36------38------36------38--38--|
--44--|--44--44--44--44--44--44--44--46--|--44--44--44--44--44--44--44--46--|
--49--|--49------------------------------|----------------------------------|
------|----------------------------------|----------------------------------|
------|----------------------------------|----------------------------------|
------|----------------------------------|----------------------------------|


   E   E   E   E   E   E      S  E.      E   E   E   E   E   E   S  S  S  S  
--36--44--38--44--36--44--38g38------|--36------38------36--38--38-38-38-38-|
--44------44------44---------44-44---|--44--44--44--44--44------44----------|
--------------------------------57---|--49----------------------------------|
--------------------------------36---|--------------------------------------|
-------------------------------------|--------------------------------------|
-------------------------------------|--------------------------------------|


   E   E   E   E   E   E   E   E      E   E   E   E   E   E   E   E   
--36------38------36------38--38--|--36------38------36------38--38--|
--44--44--44--44--44--44--44--46--|--44--44--44--44--44--44--44--46--|
--49------------------------------|----------------------------------|
----------------------------------|----------------------------------|
----------------------------------|----------------------------------|
----------------------------------|----------------------------------|


   E   E   E   E   E   E   E   E      E   E   E   E   E   E   E   E   
--36------38------36------38--38--|--36------38------36------38--38--|
--44--44--44--44--44--44--44--46--|--44--44--44--44--44--44--44--46--|
--49------------------------------|----------------------------------|
----------------------------------|----------------------------------|
----------------------------------|----------------------------------|
----------------------------------|----------------------------------|


   E   E   E   E   E   E      S  E.      E   E   E   E   E   E   S  S  S  S  
--36--44--38--44--36--44--38g38------|--36------38------36--38--38-38-38-38-|
--44------44------44---------44-44---|--44--44--44--44--44------44----------|
--------------------------------57---|--49----------------------------------|
--------------------------------36---|--------------------------------------|
-------------------------------------|--------------------------------------|
-------------------------------------|--------------------------------------|


   E   E   E   E   E   E   E   E      E   E   E   E   E   E   E   E   
--36------38------36------38--38--|--36------38------36------38--38--|
--44--44--44--44--44--44--44--46--|--44--44--44--44--44--44--44--46--|
--49------------------------------|----------------------------------|
----------------------------------|----------------------------------|
----------------------------------|----------------------------------|
----------------------------------|----------------------------------|


   E   E   E   E   E   E   E   E      E   E   E   E   E   E   E   E   
--36------38------36------38--38--|--36------38------36------38--38--|
--44--44--44--44--44--44--44--46--|--44--44--44--44--44--44--44--46--|
--49------------------------------|--57------------------------------|
----------------------------------|----------------------------------|
----------------------------------|----------------------------------|
----------------------------------|----------------------------------|


   E   E   E   E   E   E      S  E.      E   E   E   E   E   E   S  S  S  S  
--36--44--38--44--36--44--38g38------|--36------38------36--38--38-38-38-38-|
--44------44------44---------44-44---|--44--44--44--44--44------44----------|
--49----------------------------57---|--49----------------------------------|
--------------------------------36---|--------------------------------------|
-------------------------------------|--------------------------------------|
-------------------------------------|--------------------------------------|


   E   E   E   E   E   E   E   E      E   E   E   E   E   E   E   E   
--36------38------36------38--38--|--36------38------36------38--38--|
--44--44--44--44--44--44--44--46--|--44--44--44--44--44--44--44--46--|
--49------------------------------|----------------------------------|
----------------------------------|----------------------------------|
----------------------------------|----------------------------------|
----------------------------------|----------------------------------|


   E   E   E   E   E   E   E   E      E   E   E   E   E   E   E   E   
--36------38------36------38--38--|--36------38------36------38--38--|
--44--44--44--44--44--44--44--46--|--44--44--44--44--44--44--44--46--|
--49------------------------------|--57------------------------------|
----------------------------------|----------------------------------|
----------------------------------|----------------------------------|
----------------------------------|----------------------------------|


   E   E   E   E   E   E      S  E.      E   E   E   E   E   E   S  S  S  S  
--36--44--38--44--36--44--38g38------|--36------38------36--38--38-38-38-38-|
--44------44------44---------44-44---|--44--44--44--44--44------44----------|
--49----------------------------57---|--49----------------------------------|
--------------------------------36---|--------------------------------------|
-------------------------------------|--------------------------------------|
-------------------------------------|--------------------------------------|


   E   E   E   E   E   E   E   E      E   E   E   E   E   E   E   E   
--36------38------36------38--38--|--36------38------36------38--38--|
--44--44--44--44--44--44--44--46--|--44--44--44--44--44--44--44--46--|
--49------------------------------|----------------------------------|
----------------------------------|----------------------------------|
----------------------------------|----------------------------------|
----------------------------------|----------------------------------|


     W                    W                    W                 
|---36----------------|--36----------------|--36----------------|
|---44----------------|--44----------------|--44----------------|
|*--49----------------|--49----------------|--49----------------|
|*--------------------|--------------------|--------------------|
|---------------------|--------------------|--------------------|
|---------------------|--------------------|--------------------|


   H.               E   E        W                    W                  
--36------------38g38--36---||--38----------------|---L----------------||
--44------------------------||--36----------------|---L----------------||
--49-----------------------*||--44----------------|---L----------------||
---------------------------*||--49----------------|---L----------------||
----------------------------||--------------------|--------------------||
----------------------------||--------------------|--------------------||
            
Submit corrections


        Genghis Khan lessons Hard to play? Try these video lessons and learn fast Genghis Khan lessons
        
↑ Back to top | Tablatures and chords for acoustic guitar and electric guitar, ukulele, drums are parodies/interpretations of the original songs. You may use it for private study, scholarship, research or language learning purposes only