» » »

Iron Maiden - Different World Tabs

Artists:  A B C D E F G H I J K L M N O P Q R S T U V W X Y Z # 

Different World Tabs

(ver. 2) Click to play this song!
Iron Maiden
 Rating:
4/5 (4 votes)

 Different World lessons Tabs too difficult? Try these video lessons and learn fast
 
                (Intro)
-------------------------------------------------------------------------------
                        Diffferent World- Iron Maiden
-------------------------------------------------------------------------------

Tuning:Standard

e|---------------------------------------------------------------------------|
B|---------------------------------------------------------------------------|
G|---------------------------------------------------------------------------|
D|--9--9--9---10-7--9--------------7-----------------------------------------|
A|--7--7--7---7--7--7----7--9--10-----10--9--7-------------------------------|
E|---------------------------------------------------------------------------|

e|---------------------------------------------------------------------------|
B|---------------------------------------------------------------------------|
G|------------------------7--------------------------------------------------|
D|--9--9--9---10-7--9--------10---9---7--------------------------------------|
A|--7--7--7---7--7--7-----------------------10--9---7------------------------|
E|---------------------------------------------------------------------------|

behind that is B|-5555555555555555555555555555555------|...i think

Even though its not much it will get those that are good at tabbing started.

SOMEBODY PLEASE TAB FTGGOG AND LEGACY!!!!!!!
            
Submit corrections


        Different World lessons Hard to play? Try these video lessons and learn fast Different World lessons
        
↑ Back to top | Tablatures and chords for acoustic guitar and electric guitar, ukulele, drums are parodies/interpretations of the original songs. You may use it for private study, scholarship, research or language learning purposes only