» » »

Iron Maiden - Deja Vu Bass

Artists:  A B C D E F G H I J K L M N O P Q R S T U V W X Y Z # 

Deja Vu Bass

(ver. 3) Click to play this song!
Iron Maiden
 Rating:
2/5 (30 votes)

 Deja Vu lessons Tabs too difficult? Try these video lessons and learn fast
 
                Tuning: EADG

G|------------------------------------------------7---------------|
D|--------7---------------7-------9-------10--------------10------|
A|7---------------7-----------------------------------------------|
E|----------------------------------------------------------------|

G|------------------------------------------------7---------------|
D|----------------------------------------7---------------10------|
A|7-------8---------------8-------10------------------------------|
E|----------------8-----------------------------------------------|

G|--------------------------------9-----------------------7-h-9---|
D|------------------------9---------------------------------------|
A|8-------7-------------------------------5-----------------------|
E|----------------------------------------------------------------|

G|7-------7-------------------------------------------------------|
D|----10------10--7-----------------------------------------------|
A|----------------------------------------------------------------|
E|----------------------------------------------------------------|

G|------------------------------------------------7---------------|
D|--------7---------------7-------9-------10--------------10------|
A|7---------------7-----------------------------------------------|
E|----------------------------------------------------------------|

G|------------------------------------------------7---------------|
D|----------------------------------------7---------------10------|
A|7-------8---------------8-------10------------------------------|
E|----------------8-----------------------------------------------|

G|--------------------------------9-----------------------7-h-9---|
D|------------------------9---------------------------------------|
A|8-------7-------------------------------5-----------------------|
E|----------------------------------------------------------------|

G|7-------7-------------------------------7---7---7---------------|
D|----10------10--7---------------9---10--------------10--9---10--|
A|----------------------------------------------------------------|
E|----------------------------------------------------------------|

G|----------------------------------------------------------------|
D|9---10--9-p-10--9-----------------------------------------------|
A|----------------------------------------------------------------|
E|----------------------------------------------------------------|

0:33

G|----------------------------------------------------------------|
D|----------------------------------------------------------------|
A|8---8---8---8---8---8---8---8---8---8---8---8---8---8---8-------|
E|----------------------------------------------------------------|

G|----------------------------------------------------------------|
D|----------------------------------------------------------------|
A|4---4---4---4---4---4---4---4---4---4---4---4---4---4---4-------|
E|----------------------------------------------------------------|

G|----------------------------------------------------------------|
D|----------------------------------------------------------------|
A|6---6---6---6---6---6---6---6---6---6---6---6---6---6---6-------|
E|----------------------------------------------------------------|

G|----------------------------------------------------------------|
D|----------------------------------------------------------------|
A|8---8---8-------6---6---6---6---6---6---6---6---6---6---6-------|
E|----------------------------------------------------------------|

G|----------------------------------------------------------------|
D|----------------------------------------------------------------|
A|8---8---8---8---8---8---8---8---8---8---8---8---8---8---8-------|
E|----------------------------------------------------------------|

G|----------------------------------------------------------------|
D|----------------------------------------------------------------|
A|4---4---4---4---4---4---4---4---4---4---4---4---4---4---4-------|
E|----------------------------------------------------------------|

G|----------------------------------------------------------------|
D|----------------------------------------------------------------|
A|6---6---6---6---6---6---6---6---6---6---6---6---6---6---6-------|
E|----------------------------------------------------------------|

G|------------------------------------------------------------|
D|------------------------------------------------------------|
A|8---8---8-------6---6---6---6---6---6---6---6---6-----------|
E|------------------------------------------------------------|

0:54

G|----------------------------------------------------------------|.
D|------------6-------6---8---10--------------5-------5---6---8---|.
A|8-------8-------8---------------6-------6-------6---------------|.
E|----------------------------------------------------------------|.
                                                                   . x2
G|----------------------------------------------------------------|.
D|------------3-------3---4---6-----------------------------------|.
A|4-------4-------4-----------------------------------6---4---6---|.
E|------------------------------------4---3---1-------------------|.

1:04

G|----------------------------------------------------------------|.
D|----------------------------------------------------------------|.
A|8-------8---8---8---8---8-------8-------8---8---8---8---8-------|.
E|----------------------------------------------------------------|.
                                                                   .
G|----------------------------------------------------------------|.
D|----------------------------------------------------------------|.
A|8-------8---8---8---8---8-------8-------8---8---8---8---8-------|.
E|----------------------------------------------------------------|.
                                                                   . x2
G|----------------------------------------------------------------|.
D|----------------------------------------------------------------|.
A|6-------6---6---6---6---6-------6-------6---6---6---6---6-------|.
E|----------------------------------------------------------------|.
                                                                   .
G|----------------------------------------------------------------|.
D|----------------------------------------------------------------|.
A|6-------6---6---6---6---6-------6-------6---6---6---6---6-------|.
E|----------------------------------------------------------------|.

1:24

G|----------------------------------------------------------------|
D|----------------------------------------------------------------|
A|4-------4---4---4---4---4-------6-------6---6---6---6---6-------|
E|----------------------------------------------------------------|

G|----------------------------------------------------------------|
D|----------------------------------------------------------------|
A|8-------8---8---8---8---8---8---8---8---8---8---8---8---8-------|
E|----------------------------------------------------------------|

G|----------------------------------------------------------------|
D|----------------------------------------------------------------|
A|4-------4---4---4---4---4-------6-------6---6---6---6---6-------|
E|----------------------------------------------------------------|

G|----------------------------------------------------------------|
D|----------------------------------------------------------------|
A|8-------8---8---8---8---8-------6-------6---6---6---6---6-------|
E|----------------------------------------------------------------|

G|----------------------------------------------------------------|
D|----------------------------------------------------------------|
A|4-------4---4---4---4---4-------6-------6---6---6---6---6-------|
E|----------------------------------------------------------------|

1:37

G|----------------------------------------------------------------|
D|----------------------------------------------------------------|
A|8-------8---8---8---8---8-------8-------8---8---8---8---8-------|
E|----------------------------------------------------------------|

G|----------------------------------------------------------------|
D|----------------------------------------------------------------|
A|6-------6---6---6---6---6-------6-------6---6---6---6---6-------|
E|----------------------------------------------------------------|

G|----------------------------------------------------------------|
D|----------------------------------------------------------------|
A|4-------4---4---4---4---4-------6-------6---6---6---6---6-------|
E|----------------------------------------------------------------|

G|----------------------------------------------------------------|
D|----------------------------------------------------------------|
A|8-------8---8---8---8---8---8---8---8---8---8---8---8---6-------|
E|----------------------------------------------------------------|

1:47

G|----------------------------------------------------------------|
D|----------------------------------------------------------------|
A|8-------8---8---8---8---8---8---8---8---8-------6-----6-----6---|
E|----------------------------------------------------------------|

G|----------------------------------------------------------------|
D|----------------------------------------------------------------|
A|8---8---8---8---8---8---8-------6-----------6-------6-------6---|
E|----------------------------------------------------------------|

G|----------------------------------------------------------------|
D|----------------------------------------------------------------|
A|8-------8---8---8---8---8---8---8---8---8-------6-----6-----6---|
E|----------------------------------------------------------------|

G|----------------------------------------------------------------|
D|----------------------------------------------------------------|
A|8---8---8---8---8---8---8-------4---------------6---------------|
E|----------------------------------------------------------------|

1:57

G|----------------------------------------------------------------|
D|----------------------------------------------------------------|
A|8---8---8---8---8---8---8---8---8---8---8---8---8---8---8-------|
E|----------------------------------------------------------------|

G|----------------------------------------------------------------|
D|----------------------------------------------------------------|
A|4---4---4---4---4---4---4---4---4---4---4---4---4---4---4-------|
E|----------------------------------------------------------------|

G|----------------------------------------------------------------|
D|----------------------------------------------------------------|
A|6---6---6---6---6---6---6---6---6---6---6---6---6---6---6-------|
E|----------------------------------------------------------------|

G|----------------------------------------------------------------|
D|----------------------------------------------------------------|
A|8---8---8-------6---6---6---6---6---6---6---6---6---6---6-------|
E|----------------------------------------------------------------|

G|----------------------------------------------------------------|
D|----------------------------------------------------------------|
A|8---8---8---8---8---8---8---8---8---8---8---8---8---8---8-------|
E|----------------------------------------------------------------|

G|----------------------------------------------------------------|
D|----------------------------------------------------------------|
A|4---4---4---4---4---4---4---4---4---4---4---4---4---4---4-------|
E|----------------------------------------------------------------|

G|----------------------------------------------------------------|
D|----------------------------------------------------------------|
A|6---6---6---6---6---6---6---6---6---6---6---6---6---6---6-------|
E|----------------------------------------------------------------|

G|------------------------------------------------------------|
D|------------------------------------------------------------|
A|8---8---8-------6---6---6---6---6---6---6---6---6-----------|
E|------------------------------------------------------------|

2:17

G|----------------------------------------------------------------|
D|--------------------------------------------------------5---6---|
A|4-------4---4---4---4---4---4---4---4---3---4---6---8-----------|
E|----------------------------------------------------------------|

G|----------------------------------------------------------------|
D|--------------------6---5---------------------------6---5-------|
A|6---8---8---8---8-----------8---6---8---8---8---8-----------8---|
E|----------------------------------------------------------------|

G|----------------------------------------------------------------|
D|--------------------------------------------------------5---6---|
A|6---4---4---4---4---4---4---4---4---4---3---4---6---8-----------|
E|----------------------------------------------------------------|

G|----------------------------------------------------------------|
D|------------------------6---5-----------------------------------|
A|8---6---8---8---8---8-----------8---8---8---8---8---------------|
E|----------------------------------------------------------------|

2:29

G|----------------------------------------------------------------|
D|----------------------------------------------------------------| x2
A|4---4---4---4-------4-------4---4-------4-------4---4---6-------|
E|----------------------------------------------------------------|

G|----------------------------------------------------------------|
D|--------------------------------------------------------6-------| x2
A|8---8---8---8-------8-------6---8-------8-------8---8-----------|
E|----------------------------------------------------------------|

G|----------------------------------------------------------------|
D|----------------------------------------------------------------| x2
A|4---4---4---4-------4-------3---4-------4-------4---4---6-------|
E|----------------------------------------------------------------|

G|----------------------------------------------------------------|
D|--------------------------------------------------------6-------| x2
A|8---8---8---8-------8-------6---8-------8-------8---8-----------|
E|----------------------------------------------------------------|

2:48

G|----------------------------------------------------------------|.
D|----------------------------------------6---5-------6---5-------|.
A|4---4---4---4---4---4---4---4---4----------------------------6--|.
E|----------------------------------------------------------------|.
                                                                   .
G|----------------------------------------------------------------|.
D|----------------------------------------6---5-------6---5-------|.
A|4---4---4---4---4---4---4---4---4---------------------------6---|.
E|----------------------------------------------------------------|.
                                                                   . x2
G|----------------------------------------------------------------|.
D|----------------------------------------6---5-------6---5-------|.
A|8---8---8---8---8---8---8---8---8---------------------------6---|.
E|----------------------------------------------------------------|.
                                                                   .
G|----------------------------------------------------------------|.
D|----------------------------------------6---5-------6---5-------|.
A|8---8---8---8---8---8---8---8---8---------------------------6---|.
E|----------------------------------------------------------------|.

G|----------------------------------------------------------------|
D|----------------------------------------6---5-------6---5-------|
A|4---4---4---4---4---4---4---4---4----------------------------6--|
E|----------------------------------------------------------------|

G|----------------------------------------------------------------|
D|----------------------------------------6---5-------6---5-------|
A|4---4---4---4---4---4---4---4---4---------------------------6---|
E|----------------------------------------------------------------|      

G|----------------------------------------------------------------|
D|----------------------------------------6---5-------6---5-------|
A|8---8---8---8---8---8---8---8---8---------------------------6---|
E|----------------------------------------------------------------|

G|------------------------------------------------------------|
D|----------------------------------------6---5-------6---5---|
A|8---8---8---8---8---8---8---8---8---------------------------|
E|------------------------------------------------------------|

3:18

G|----------------------------------------------------------------|.
D|------------6-------6---8---10--------------5-------5---6---8---|.
A|8-------8-------8---------------6-------6-------6---------------|.
E|----------------------------------------------------------------|.
                                                                   . x2
G|----------------------------------------------------------------|.
D|------------3-------3---4---6-----------------------------------|.
A|4-------4-------4-----------------------------------6---4---6---|.
E|------------------------------------4---3---1-------------------|.

3:28

G|----------------------------------------------------------------|
D|----------------------------------------------------------------|
A|8-------8---8---8---8---8-------8-------8---8---8---8---8-------|
E|----------------------------------------------------------------|

G|----------------------------------------------------------------|
D|----------------------------------------------------------------|
A|8-------8---8---8---8---8-------8-------8---8---8---8---8-------|
E|----------------------------------------------------------------|

G|----------------------------------------------------------------|
D|----------------------------------------------------------------|
A|6-------6---6---6---6---6-------6---6---6---6---6---6---6-------|
E|----------------------------------------------------------------|

G|----------------------------------------------------------------|
D|----------------------------------------------------------------|
A|6-------6---6---6---6---6-------6-------6---6---6---6---6-------|
E|----------------------------------------------------------------|

G|----------------------------------------------------------------|
D|----------------------------------------------------------------|
A|8-------8---8---8---8---8-------8-------8---8---8---8---8-------|
E|----------------------------------------------------------------|

G|----------------------------------------------------------------|
D|----------------------------------------------------------------|
A|8-------8---8---8---8---8-------8-------8---8---8---8---8-------|
E|----------------------------------------------------------------|

G|----------------------------------------------------------------|
D|----------------------------------------------------------------|
A|6-------6---6---6---6---6-------6-------6---6---6---6---6-------|
E|----------------------------------------------------------------|

G|------------------------------------------------------------|
D|------------------------------------------------------------|
A|6-------6---6---6---6---6-------6-------6---6---6---6-------|
E|------------------------------------------------------------|

3:49

G|----------------------------------------------------------------|
D|----------------------------------------------------------------|
A|4-------4---4---4---4---4-------6-------6---6---6---6---6-------|
E|----------------------------------------------------------------|

G|----------------------------------------------------------------|
D|----------------------------------------------------------------|
A|8-------8---8---8---8---8---8---8---8---8---8---8---8---8-------|
E|----------------------------------------------------------------|

G|----------------------------------------------------------------|
D|----------------------------------------------------------------|
A|4-------4---4---4---4---4-------6-------6---6---6---6---6-------|
E|----------------------------------------------------------------|

G|----------------------------------------------------------------|
D|----------------------------------------------------------------|
A|8-------8---8---8---8---8-------6-------6---6---6---6---6-------|
E|----------------------------------------------------------------|

G|----------------------------------------------------------------|
D|----------------------------------------------------------------|
A|4-------4---4---4---4---4-------6-------6---6---6---6---6-------|
E|----------------------------------------------------------------|

4:01

G|----------------------------------------------------------------|
D|----------------------------------------------------------------|
A|8-------8---8---8---8---8-------8-------8---8---8---8---8-------|
E|----------------------------------------------------------------|

G|----------------------------------------------------------------|
D|----------------------------------------------------------------|
A|6-------6---6---6---6---6-------6-------6---6---6---6---6-------|
E|----------------------------------------------------------------|

G|----------------------------------------------------------------|
D|----------------------------------------------------------------|
A|4-------4---4---4---4---4-------6-------6---6---6---6---6-------|
E|----------------------------------------------------------------|

G|----------------------------------------------------------------|
D|----------------------------------------------------------------|
A|8-------8---8---8---8---8-------8-------8---8---8---8---6-------|
E|----------------------------------------------------------------|

4:11

G|----------------------------------------------------------------|
D|----------------------------------------------------------------|
A|8-------8---8---8---8---8---8---8---8---8-------6-----6-----6---|
E|----------------------------------------------------------------|

G|----------------------------------------------------------------|
D|----------------------------------------------------------------|
A|8---8---8---8---8---8---8-------6-----------6-------6-------6---|
E|----------------------------------------------------------------|

G|----------------------------------------------------------------|
D|----------------------------------------------------------------|
A|8-------8---8---8---8---8---8---8---8---8-------6-----6-----6---|
E|----------------------------------------------------------------|

G|----------------------------------------------------------------|
D|----------------------------------------------------------------|
A|8---8---8---8---8---8---8-------4---------------6---------------|
E|----------------------------------------------------------------|

4:22

G|----------------------------------------------------------------|
D|----------------------------------------------------------------|
A|8---8---8---8---8---8---8---8---8---8---8---8---8---8---8-------|
E|----------------------------------------------------------------|

G|----------------------------------------------------------------|
D|----------------------------------------------------------------|
A|4---4---4---4---4---4---4---4---4---4---4---4---4---4---4-------|
E|----------------------------------------------------------------|

G|----------------------------------------------------------------|
D|----------------------------------------------------------------|
A|6---6---6---6---6---6---6---6---6---6---6---6---6---6---6-------|
E|----------------------------------------------------------------|

G|----------------------------------------------------------------|
D|----------------------------------------------------------------|
A|8---8---8-------6---6---6---6---6---6---6---6---6---6---6-------|
E|----------------------------------------------------------------|

G|----------------------------------------------------------------|
D|----------------------------------------------------------------|
A|8---8---8---8---8---8---8---8---8---8---8---8---8---8---8-------|
E|----------------------------------------------------------------|

G|----------------------------------------------------------------|
D|----------------------------------------------------------------|
A|4---4---4---4---4---4---4---4---4---4---4---4---4---4---4-------|
E|----------------------------------------------------------------|

G|----------------------------------------------------------------|
D|----------------------------------------------------------------|
A|6---6---6---6---6---6---6---6---6---6---6---6---6---6---6-------|
E|----------------------------------------------------------------|

G|------------------------------------------------------------|
D|------------------------------------------------------------|
A|8---8---8-------6---6---6---6---6---6---6---6---6-----------|
E|------------------------------------------------------------|

G|----------------------------------------------------------------|
D|------------6-------6---8---10--------------5-------5---6---8---|
A|8-------8-------8---------------6-------6-------6---------------|
E|----------------------------------------------------------------|

G|----------------------------------------------------------------|
D|------------3-------3---4---6-----------------------------------|
A|4-------4-------4-----------------------------------6---4---6---|
E|------------------------------------4---3---1-------------------|

G|----------------------------------------------------------------|
D|------------6-------6---8---10--------------5-------5---6---8---|
A|8-------8-------8---------------6-------6-------6---------------|
E|----------------------------------------------------------------|

G|--------------------------------------------------------------------|
D|------------3-------3---4---6---------------------------------------|
A|4-------4-------4-----------------------------------6---4---6---8---|
E|------------------------------------4---3---1-----------------------|            
Submit corrections


        Deja Vu lessons Hard to play? Try these video lessons and learn fast Deja Vu lessons
        
↑ Back to top | Tablatures and chords for acoustic guitar and electric guitar, ukulele, drums are parodies/interpretations of the original songs. You may use it for private study, scholarship, research or language learning purposes only