» » »

Iron Maiden - Coming Home Tabs

Artists:  A B C D E F G H I J K L M N O P Q R S T U V W X Y Z # 

Coming Home Tabs

(ver. 2) Click to play this song!
Iron Maiden
 Rating:
4/5 (4 votes)

 Coming Home lessons Tabs too difficult? Try these video lessons and learn fast
 
                Song-Coming Home(Solo)
Band-Iron Maiden

Noone has tabbed BOTH solos last time I checked so here they are. This is my first tab 
so corrections are appreciated.

Key:
h:hammer-on
p:pull-off
b:bend
r:release
/:slide up
\:slide down
~:vibrato/sustained note
Dave's Solo
e|---------------|
B|---------------|
G|-4/11-16~~~~~~-|
D|---------------|
A|---------------|
E|---------------|

e|-------------------------15-14h15p14p12-------|
B|-12-13-12h13p12----12-13----------------15b17-|
G|----------------14----------------------------|
D|----------------------------------------------|
A|----------------------------------------------|
E|----------------------------------------------|

e|-12----------------------------------------|
B|---12-15-----12----------------------------|
G|--------14b16--15-14-12-14-14b15-12--12----|
D|-----------------------------------14--14\-|
A|-------------------------------------------|
E|-------------------------------------------|

e|-----------------------------------------------------------------------|
B|--------------------------------------15-13p12-13p12--12---------------|
G|--------------------12-11h12p11--11/12--------------14--14b16r14~~~b16-|
D|---------------12h14-----------14--------------------------------------|
A|-12b14r12-10-14--------------------------------------------------------|
E|-----------------------------------------------------------------------|

e|---------------------------------------|
B|---15----------------------------------|
G|-12--14b16-12--------------------------|
D|-------------14p12--12--------------12-|
A|------------------14--14p12p10-12/14---|
E|---------------------------------------|

e|------12------------------------|
B|-15b17--12-15-----12h15p12------|
G|-------------14b16--------14b16-|
D|--------------------------------|
A|--------------------------------|
E|--------------------------------|

e|------------------------12---------------12-14p12--12---|
B|-12-----------------------15p12-----12h15--------15--15-|
G|---15p14p12--12-14b16r14-------14b16--------------------|
D|-----------14-------------------------------------------|
A|--------------------------------------------------------|
E|--------------------------------------------------------|

e|----------12-14p12---------------12--15b17-|
B|-12--15b17--------15b17r15p12--12--12------|
G|---14------------------------14------------|
D|-------------------------------------------|
A|-------------------------------------------|
E|-------------------------------------------|

e|-15b17r15p12-----12h14--12-----------------------|
B|------------12h15-----15--15-----12--------------|
G|----------------------------14b16--14-14b16-12---|
D|----------------------------------------------14-|
A|-------------------------------------------------|
E|-------------------------------------------------|

Adrian's Solo
e|------12-14-15-14-12-------------------------------|
B|-15b17--------------12-----------------------------|
G|----------------------12/11----------------12-12---|
D|---------------------------14-12--12--12h14-----14-|
A|--------------------------------14--14-------------|
E|---------------------------------------------------|

e|----------------------------|
B|----------------------------|
G|-11b13r11-9--11/9--9/7-9-7--|
D|----------------------------|
A|-----------12----10-------9-|
E|----------------------------|

e|------------------|
B|------------------|
G|------------------|
D|-4-5-4-4-----5-5--|
A|------7-7-5-7---7-|
E|------------------|

e|------12-14-15-14-12--12------------12-15-12h15p12-|
B|-15b17--------------15--15-12-----12---------------|
G|-----------------------------14b16-----------------|
D|---------------------------------------------------|
A|---------------------------------------------------|
E|---------------------------------------------------|

e|---12------------12--------------------|
B|-15--15-12-----12--15-12---------------|
G|----------14b16---------15-14-12--12---|
D|--------------------------------14--14-|
A|---------------------------------------|
E|---------------------------------------|

e|--------------------------------|
B|-15p12--------------------------|
G|------14p12--12h14--------------|
D|------------------14-12---------|
A|-----------14----------12-14-10-|
E|--------------------------------|

e|-------------------------------------------------|
B|-------------------------------------------------|
G|---------------9-11-12~~~-12-11-12/14-11---------|
D|--------9-10-12-------------------------14p12h14-|
A|---10-12-----------------------------------------|
E|-12----------------------------------------------|

There are the solos.
\m/ UP THE IRONS \m/
            
Submit corrections


        Coming Home lessons Hard to play? Try these video lessons and learn fast Coming Home lessons
        
↑ Back to top | Tablatures and chords for acoustic guitar and electric guitar, ukulele, drums are parodies/interpretations of the original songs. You may use it for private study, scholarship, research or language learning purposes only