» » »

Iron Maiden - Brave New World Tabs

Artists:  A B C D E F G H I J K L M N O P Q R S T U V W X Y Z # 

Brave New World Tabs

(ver. 3) Click to play this song!
Iron Maiden
 Rating:
4/5 (4 votes)
                This is the way they play the first solo of Brave New World at Rock in Rio...



Assuming you know all the symbols... here it goes



|---------------------------------------------------------|
|----------------------------------13b----13-12-9---------|
|--12b-------10--10--10--10--10--------------------12-9---|
|----------12--12--12--12--12-----------------------------|
|---------------------------------------------------------|
|---------------------------------------------------------|


|-----------------12----15---14----15-----15b--15-13-12h13|
|-----------9-12------------------------------------------|
|---9--9-11-----------------------------------------------|
|-11-11---------------------------------------------------|
|---------------------------------------------------------|
|---------------------------------------------------------|
                                                         

|---------------------------------------------------------|
|13------------------------------------13b^-----12-13-12--|
|------------------------------10-12----------------------|
|---------------------------------------------------------|
|---------------------------------------------------------|
|--5br------10p9p7h9-10br---------------------------------|


|--------15p14p12h15p13p12h15p14p12h15p13p12—15b----------|
|-13b-----------------------------------------------------|
|---------------------------------------------------------|
|---------------------------------------------------------|
|---------------------------------------------------------|
|---------------------------------------------------------|


|--15b—15—13--12--13---15---15b---15---13----12-----------|
|--------------------------------------------------13-----|
|---------------------------------------------------------|
|---------------------------------------------------------|
|---------------------------------------------------------|
|---------------------------------------------------------|





|--15b—15—13--12------------------------------------------|
|-----------------13-----------13/15~~~~~~~---------------|
|-----------------------12--------------------------------|
|---------------------------------------------------------|
|---------------------------------------------------------|
|---------------------------------------------------------|

|--15b—15—13--12--13---15---15b---15---13----12-----------|
|--------------------------------------------------13-----|
|---------------------------------------------------------|
|---------------------------------------------------------|
|---------------------------------------------------------|
|---------------------------------------------------------|


|--15b—15—13--12--13----15-----15b~~~~~~~~~~`-------------|
|--------------------------------------~~~~---------------|
|---------------------------------------------------------|
|---------------------------------------------------------|
|---------------------------------------------------------|
|---------------------------------------------------------|



That should be right, hard too get right because they play so 
***ed fast
            
Submit corrections

↑ Back to top | Tablatures and chords for acoustic guitar and electric guitar, ukulele, drums are parodies/interpretations of the original songs. You may use it for private study, scholarship, research or language learning purposes only