» » »

Iron Maiden - Because Ive Got The Fire Tabs

Artists:  A B C D E F G H I J K L M N O P Q R S T U V W X Y Z # 

Because Ive Got The Fire Tabs

(ver. 2) Click to play this song!
Iron Maiden
 Rating:
3.2/5 (29 votes)

 Because Ive Got The Fire lessons Tabs too difficult? Try these video lessons and learn fast
 
                 2 times 
e:----------------------------------------------------| 
B:-------3~~------------------------------------------| 
G:-------3~~---------3---5-3------------------3--5----| 
D:-0-3-5-----5-3-5-5---5-----5-3--------------3--5--5-| 
A:-------------------------------5-4-3--1-----1--3--5-| 
E:-----------------------------------------3--------3-| 
 
2 times 
e:-----------------------------------------| 
B:-----------------------------------------| 
G:-----------------------------------------| 
D:-------------5------5------5------5------| 
A:-------------5------5------5------5------| 
E:-0-1-2--3-3--3-3-3--3-3-3--3-3-3--3-3-3--| 
 
verse 
e:----------------------| 
B:----------------------| 
G:-------3------5-------| 
D:-5-----3------5-----5-| 
A:-5-----1------3-----5-| 
E:-3------------------3-| 
 
e:-------------------------------------| 
B:-------------------------------------| 
G:-------3------5--------3-------------| 
D:-5-----3------5-----5----5~~--3--5---| 
A:-5-----1------3-----5----------------| 
E:-3------------------3----------------| 
 
e:-----------------------------------------| 
B:-----------------------------------------| 
G:-------3------5--------3-----3-----3~~~~-| 
D:-5-----3------5-----5-----5-----5--------| 
A:-5-----1------3--------------------------| 
E:-3---------------------------------------| 
 
 2 times 
e:----------------------------------------------------| 
B:-------3~~------------------------------------------| 
G:-------3~~---------3---5-3------------------3--5----| 
D:-0-3-5-----5-3-5-5---5-----5-3--------------3--5--5-| 
A:-------------------------------5-4-3--1-----1--3--5-| 
E:-----------------------------------------3--------3-|  
 
 
solo 1 
e:-----------------------------------------------------------------------------------------| 
B:-----------------------------------------------------------------------------------------| 
G:0-5p2-0-6p3-0-7p4-0-8p5-0-9p6-0-10p7-0-11p8-0-12p9-0-13p10-0-14p11-0-15p12-0-15p12-12-15b| 
D:-----------------------------------------------------------------------------------------| 
A:-----------------------------------------------------------------------------------------| 
E:-----------------------------------------------------------------------------------------| 
  
e:----------------------------------------------------------------------------------------| 
B:-15-18-15h18p15----15-18-15h18p15----15-18-15h18p15----15-18-15h18p15----15-18-15h18p15-| 
G:----------------18----------------18----------------18----------------18----------------| 
D:----------------------------------------------------------------------------------------| 
A:----------------------------------------------------------------------------------------| 
E:----------------------------------------------------------------------------------------| 
 
e:-------------15b~~~~-| 
B:----15-18-15---------| 
G:-18------------------| 
D:---------------------| 
A:---------------------| 
E:---------------------| 
 
 
solo 2 
e:------------------------------------------------------------------------| 
B:----5b------------------------------------------------------------------| 
G:----5b--5-3----------3-5-5AH-5p3---3--3b--------3p0-3p0-----3p0-3p0-----| 
D:------------5----3-5-------------5-------0h3p0----------3p0---------3p0-| 
A:---------------5--------------------------------------------------------| 
E:17/---------------------------------------------------------------------| 
 
e:------------------------------------------------------------------------------| 
B:-------------------------------------6-6--4-6-6-6--4-6-6-6--4-6-6-6--4--------| 
G:--3p0-3p0------3p0-3p0-----3~~~--5/7-7-7--5/7-7-7--5/7-7-7--5/7-7-7--5---5/17-| 
D:----------3p0----------3p0----------------------------------------------------| 
A:------------------------------------------------------------------------------| 
E:------------------------------------------------------------------------------| 
 
e:-----15-15----15-15-----15-15-----15-15-----15-15-----15-15-----15-15-----15-15-| 
B:-----15-15----15-15-----15-15-----15-15-----15-15-----15-15-----15-15-----15-15-| 
G:-17b-------17b------17b-------17b-------17b-------17b-------17b--------17b------| 
D:--------------------------------------------------------------------------------| 
A:--------------------------------------------------------------------------------| 
E:--------------------------------------------------------------------------------| 
 
e:-----15----------------------------------|-----15-----------15-----------15--------18b~~-| 
B:---15---15-18-15-------------------------|-18b----18p15-18b----18p15-18b----18p15--------| 
G:17b--------------18-17-15-17-15----15~~~-|-----------------------------------------------| 
D:--------------------------------17-------|-----------------------------------------------| 
A:-----------------------------------------|-----------------------------------------------| 
E:-----------------------------------------|-----------------------------------------------| 
 
 
e:----------------------------------------------------| 
B:-------3~~------------------------------------------| 
G:-------3~~---------3---5-3------------------3--5----| 
D:-0-3-5-----5-3-5-5---5-----5-3--------------3--5--5-| 
A:-------------------------------5-4-3--1-----1--3--5-| 
E:-----------------------------------------3--------3-| 
 
2 times 
e:-----------------------------------------| 
B:-----------------------------------------| 
G:-----------------------------------------| 
D:-------------5------5------5------5------| 
A:-------------5------5------5------5------| 
E:-0-1-2--3-3--3-3-3--3-3-3--3-3-3--3-3-3--| 
 
verse 
e:----------------------| 
B:----------------------| 
G:-------3------5-------| 
D:-5-----3------5-----5-| 
A:-5-----1------3-----5-| 
E:-3------------------3-| 
 
e:-------------------------------------| 
B:-------------------------------------| 
G:-------3------5--------3-------------| 
D:-5-----3------5-----5----5~~--3--5---| 
A:-5-----1------3-----5----------------| 
E:-3------------------3----------------| 
 
e:-----------------------------------------| 
B:-----------------------------------------| 
G:-------3------5--------3-----3-----3~~~~-| 
D:-5-----3------5-----5-----5-----5--------| 
A:-5-----1------3--------------------------| 
E:-3---------------------------------------| 
 
 2 times 
e:----------------------------------------------------| 
B:-------3~~------------------------------------------| 
G:-------3~~---------3---5-3------------------3--5----| 
D:-0-3-5-----5-3-5-5---5-----5-3--------------3--5--5-| 
A:-------------------------------5-4-3--1-----1--3--5-| 
E:-----------------------------------------3--------3-| 
 
e:-------------------------------------------------------------------| 
B:-------------------------------------------------------------------| 
G:-------------------------------------------------------------------| 
D:-5-5-5-5-5-5-5-5-5-5-5-5-5-5-5-5-5-5-5-5-5-5-5-5-5-5-5-5-5-5-5-5-5-| 
A:-5-5-5-5-5-5-5-5-5-5-5-5-5-5-5-5-5-5-5-5-5-5-5-5-5-5-5-5-5-5-5-5-5-| 
E:-3-3-3-3-3-3-3-3-3-3-3-3-3-3-3-3-3-3-3-3-3-3-3-3-3-3-3-3-3-3-3-3-3-| 
 
slide down 
e:----| 
B:----| 
G:----| 
D:-5/-| 
A:-5/-| 
E:-3/-|             
Submit corrections


        Because Ive Got The Fire lessons Hard to play? Try these video lessons and learn fast Because Ive Got The Fire lessons
        
↑ Back to top | Tablatures and chords for acoustic guitar and electric guitar, ukulele, drums are parodies/interpretations of the original songs. You may use it for private study, scholarship, research or language learning purposes only