» » »

Iron Maiden - Afraid To Shoot Strangers Bass

Artists:  A B C D E F G H I J K L M N O P Q R S T U V W X Y Z # 

Afraid To Shoot Strangers Bass

(ver. 3) Click to play this song!
Iron Maiden
 Rating:
4/5 (4 votes)

 Afraid To Shoot Strangers lessons Tabs too difficult? Try these video lessons and learn fast
 
                Intro
||-------9---9-------9---9-------9---9-------9---9----|
||-o---9---9---9---9---9---9---9---9---9---9---9---9--|
||-o-7-----------7-----------7-----------7------------|
||----------------------------------------------------|

|-----12--12------12--12------12--12------12--12---|
|---12--12--12--12--12--12--12--12--12--12--12--12-|
|-10----------10----------10----------10-----------|
|--------------------------------------------------|

|-----6---6-------6---6-------6---6-------6---6----|
|---6---6---6---6---6---6---6---6---6---6---6---6--|
|-4-----------4-----------4-----------4------------|
|--------------------------------------------------|

First time
|-----4---4-------4---4-------4---4-------4---4------||
|---4---4---4---4---4---4---4---4---4---4---4---4--o-||
|-2-----------2-----------2-----------2------------o-||
|----------------------------------------------------||
                                                     ||
Second time                                          ||
|-----4---4-------4---4------------------------------||
|---4---4---4---4---4---4-----6---6-------6---6----o-||
|-2-----------2-------------6---6---6---6---6---6--o-||
|-------------------------4-----------4--------------||


Verse A
||-------9---9-------9---9-------9---9-------9---9----|
||-o---9---9---9---9---9---9---9---9---9---9---9---9--|
||-o-7-----------7-----------7-----------7------------|
||----------------------------------------------------|

|-----6---6-------6---6-------6---6-------6---6----|
|---6---6---6---6---6---6---6---6---6---6---6---6--|
|-4-----------4-----------4-----------4------------|
|--------------------------------------------------|

|-----7---7-------7---7-------7---7-------7---7----|
|---7---7---7---7---7---7---7---7---7---7---7---7--|
|-5-----------5-----------5-----------5------------|
|--------------------------------------------------|

|-----4---4-------4---4-------4---4-------4---4------||
|---4---4---4---4---4---4---4---4---4---4---4---4--o-||
|-2-----------2-----------2-----------2------------o-||
|----------------------------------------------------||


Verse B
||-------5---5-------6---6-------3---3----|
||-o---5---5---5---6---6---6---3---3---3--|
||-o-3-----------4-----------1------------|
||----------------------------------------|

|-----5---5-------5---5-------5---5-------5---5------||
|---5---5---5---5---5---5---5---5---5---5---5---5--o-||
|-3-----------3-----------3-----------3------------o-||
|----------------------------------------------------||


Verse A


Verse C
||-------5---5-------5---5-------6---6-------3---3----|
||-o---5---5---5---5---5---5---6---6---6---3---3---3--|
||-o-3-----------3-----------4-----------1------------|
||----------------------------------------------------|

|-----5---5-------5---5-------5---5-------5---5------||
|---5---5---5---5---5---5---5---5---5---5---5---5--o-||
|-3-----------3-----------3-----------3------------o-|| 4x
|----------------------------------------------------||


Chorus (I marked the strumming pattern on the first bar: ?=downstroke ?=upstroke)

     ?   ?   ?       ?   ?   ?       ?   ?   ?       ? ? ?   ? ? ?
||---11--11--11------7---7---7-------9---9---9-------7-7-7---9-9-9----|
||-o-11--11--11------7---7---7-------9---9---9-------7-7-7---9-9-9----|
||-o-9---9---9-------5---5---5-------7---7---7-------5-5-5---7-7-7----|
||--------------------------------------------------------------------|

|-11--11--11------7---7---7-------9---9---9-------4-4-4---6-6-6----|
|-11--11--11------7---7---7-------9---9---9-------4-4-4---6-6-6----|
|-9---9---9-------5---5---5-------7---7---7-------2-2-2---4-4-4----|
|------------------------------------------------------------------|

|-11--11--11------7---7---7-------9---9---9-------7-7-7---9-9-9----|
|-11--11--11------7---7---7-------9---9---9-------7-7-7---9-9-9----|
|-9---9---9-------5---5---5-------7---7---7-------5-5-5---7-7-7----|
|------------------------------------------------------------------|

|-11--11--11------7---7---7-------9---9---9-------4---4---6-6-6------||
|-11--11--11------7---7---7-------9---9---9-------4---4---6-6-6----o-||
|-9---9---9-------5---5---5-------7---7---7-------2---2---4-4-4----o-||
|--------------------------------------------------------------------||

|-11--11--11------7---7---7-------9---9---9-------7-7-7---9-9-9----|
|-11--11--11------7---7---7-------9---9---9-------7-7-7---9-9-9----|
|-9---9---9-------5---5---5-------7---7---7-------5-5-5---7-7-7----|
|------------------------------------------------------------------|

|-11--11--11------7---7---7-------9---9---9-------4-4-4---6-6-6----|
|-11--11--11------7---7---7-------9---9---9-------4-4-4---6-6-6----|
|-9---9---9-------5---5---5-------7---7---7-------2-2-2---4-4-4----| 
|------------------------------------------------------------------|


Guitar solo 1
||---9-----------------------------------------------7---7---5---5----|
||-o-9-----------------------------------------------7---7---5---5----|
||-o-7---7-7---7-7---7-7-7-7-7-7-7-7-7---7-7---7-7--------------------|
||--------------------------------------------------------------------|

|-9-----------------------------------------------7---7---5---5----|
|-9-----------------------------------------------7---7---5---5----|
|-7---7-7---7-7---7-7-7-7-7-7-7-7-7---7-7---7-7--------------------|
|------------------------------------------------------------------|

|-7-----------------------------------------------2---2---4---4----|
|-7-----------------------------------------------2---2---4---4----|
|-5---5-5---5-5---5-5-5-5-5-5-5-5-5---5-5---5-5---0---0---2---2----|
|------------------------------------------------------------------|

|-9-----------------------------------------------7---7---5---5------||
|-9-----------------------------------------------7---7---5---5----o-||
|-7---7-7---7-7---7-7-7-7-7-7-7-7-7---7-7---7-7--------------------o-||
|--------------------------------------------------------------------||


Interlude (10's and 12's, not 0's, 1's or 2's)
||---9-------------------------------5---------------7----------------|
||-o-9-------------------------------5---------------7----------------|
||-o-7---7-7---7-7---7-7-7---7-7-7---3---3-3---3-3---5---5-5---5-5----|
||--------------------------------------------------------------------|

|-9------------------------------------------------------------------||
|-9----------------------------------------------------------------o-||
|-7---7-7---7-7---7-7-7---7-7-7---7---7-7---7-7---7-7-7---7-7-7----o-||
|--------------------------------------------------------------------||

|-14------------------------------10--------------12---------------|
|-14------------------------------10--------------12---------------|
|-12--1212--1212--121212--121212--8---8-8---8-8---10--1010--1010---|
|------------------------------------------------------------------|

|-14---------------------------------------------------------------|
|-14---------------------------------------------------------------|
|-12--1212--1212--121212--121212--12--1212--1212--121212--121212---|
|------------------------------------------------------------------|

|-9-------------------------------5---------------7----------------|
|-9-------------------------------5---------------7----------------|
|-7---7-7---7-7---7-7-7---7-7-7---3---3-3---3-3---5---5-5---5-5----|
|------------------------------------------------------------------|

|-9----------------------------------------------------------------|
|-9----------------------------------------------------------------|
|-7---7-7---7-7---7-7-7---7-7-7---7---7-7---7-7---7-7-7---7-7-7----|
|------------------------------------------------------------------|


"Verse"
||---7-----9-------------------------7-----9-----9-----7--------------|
||-o-7-----9-------------------------7-----9-----7-----5-----5-5-5----|
||-o-5-----7---7-7---7-7-7---7-7-7---5-----7--------------------------|
||--------------------------------------------------------------------|

|-7-----9-------------------------7-----9-----9-----7--------------|
|-7-----9-------------------------7-----9-----7-----5-----5-5-5----|
|-5-----7---7-7---7-7-7---7-7-7---5-----7--------------------------|
|------------------------------------------------------------------|

|-5-----7-------------------------5-----7-----9-----7--------------|
|-5-----7-------------------------5-----7-----7-----5-----5-5-5----|
|-3-----5---5-5---5-5-5---5-5-5---3-----5--------------------------|
|------------------------------------------------------------------|

|-7-----9-------------------------7-----9-----9-----7----------------||
|-7-----9-------------------------7-----9-----7-----5-----5-5-5----o-||
|-5-----7---7-7---7-7-7---7-7-7---5-----7--------------------------o-||
|--------------------------------------------------------------------||


Guitar solo 2
|-9-----------------------------------------------7---7---5---5----|
|-9-----------------------------------------------7---7---5---5----|
|-7---7-7---7-7---7-7-7-7-7-7-7-7-7---7-7---7-7--------------------|
|------------------------------------------------------------------|

|-9-----------------------------------------------7---7---5---5----|
|-9-----------------------------------------------7---7---5---5----|
|-7---7-7---7-7---7-7-7-7-7-7-7-7-7---7-7---7-7--------------------|
|------------------------------------------------------------------|

|-7-----------------------------------------------2---2---4---4----|
|-7-----------------------------------------------2---2---4---4----|
|-5---5-5---5-5---5-5-5-5-5-5-5-5-5---5-5---5-5---0---0---2---2----|
|------------------------------------------------------------------|

|-9-----------------------------------------------7---7---5---5----|
|-9-----------------------------------------------7---7---5---5----|
|-7---7-7---7-7---7-7-7-7-7-7-7-7-7---7-7---7-7--------------------|
|------------------------------------------------------------------|


Chorus (listen to the slowing tempo at the very end)


Ending (swipe with a thumb)
|-----11---|
|---11-----|
|-9--------| 
|----------|            
Submit corrections


        Afraid To Shoot Strangers lessons Hard to play? Try these video lessons and learn fast Afraid To Shoot Strangers lessons
        
↑ Back to top | Tablatures and chords for acoustic guitar and electric guitar, ukulele, drums are parodies/interpretations of the original songs. You may use it for private study, scholarship, research or language learning purposes only