» » »

Iron Maiden - Aces High Bass

Artists:  A B C D E F G H I J K L M N O P Q R S T U V W X Y Z # 

Aces High Bass

(ver. 2) Click to play this song!
Iron Maiden
 Rating:
2.1/5 (30 votes)

 Aces High lessons Tabs too difficult? Try these video lessons and learn fast
 
                Tuning: EADG

G|11--------------------------11-11-11----------------------------|.
D|9---------------------------------------------------------------|.
A|9---------------------------------------------------------------|.
E|----------------------------------------------------------------|.
                                                                   . x4
G|7---------------------------------------------------------------|.
D|5---------------------------------------------------------------|.
A|5---------------------------7-7-7-------------------------------|.
E|----------------------------------------------------------------|.

0:25

G|----------------------------------------------------------------|
D|7---7-7-7-7-7-7-7---7---7-------3---3-3-3-3-3---5-5-5-5-5-5-5-5-| x3
A|----------------------------------------------------------------|
E|----------------------------------------------------------------|

G|----------------------------------------------------------------|
D|7---7-7-7-7-7-7-7---7---7-------3---3-3-3-3-3---5-5-5-5-5-5-5---|
A|----------------------------------------------------------------|
E|----------------------------------------------------------------|

0:40

G|----------------------------------------------------------------|
D|------------------------------------------------------4---------| x4
A|5h7-7-7---7-7---5h7-7-7---7-7---5h7-7-7---7-7---5-----------5---|
E|----------------------------------------------------------------|

G|------------------------------------------------------4---------|
D|5h7-7-7---7-7---5h7-7-7---7-7---5h7-7-7---7-7---5-----------5---| x4
A|----------------------------------------------------------------|
E|----------------------------------------------------------------|

1:11

G|------------------------------------------------5-4-------------|.
D|----------------5---------------7-------------------7-5-7-5-4---|.
A|5h7---7---7-7-----7---7---7-7-----7---7---7-7-------------------|.
E|----------------------------------------------------------------|.
                                                                   . x2
G|------------------------------------------------5-4-------------|.
D|----------------5---------------7-------------------7-5-7-------|.
A|5h7---7---7-7-----7---7---7-7-----7---7---7-7-------------------|.
E|----------------------------------------------------------------|.

1:26

G|----------------------------------------------------------------|
D|----------------------------------------------------------------| x4
A|7---7-7---7-7---7-7-7-7-7---5---3---3-3---3-3---5---5-5---5-5---|
E|----------------------------------------------------------------|

G|------------------------------------------------------2---------|
D|5---5-5---5-5---5-5-5-5-5---3---1---1-1---1-1---3-----------3---| x3
A|----------------------------------------------------------------|
E|----------------------------------------------------------------|

G|----------------------------------------------------------------|
D|5---5-5---5-5---5-5-5-5-5---3---1---1-1---1-1---3-----------/---|
A|----------------------------------------------------------------|
E|----------------------------------------------------------------|

1:55

G|----5-5---------5-4-----7---7-------5-5---------5-4-------------|.
D|7---------7-7-------7-----------7---------7-7-------7-5-7---7---|.
A|----------------------------------------------------------------|.
E|----------------------------------------------------------------|.
                                                                   . x2
G|----5-5---------5-4-----7---7-------5-5---------5-4-------------|.
D|7---------7-7-------7-----------7---------7-7-------7-5-7-------|.
A|----------------------------------------------------------------|.
E|----------------------------------------------------------------|.

2:08

Guitar solo.

G|----------------------------------------------------------------|
D|7---7-7---7-7---7-7-7-7-7---5---3---3-3---3-3---5---5-5---5-5---|
A|----------------------------------------------------------------|
E|----------------------------------------------------------------|

G|----------------------------------------------------------------|
D|7---7-7---7-7---7-7-7-7-7---5-------------------------5-----5---|
A|--------------------------------3---3-3---3-3---5---5-----5-----|
E|----------------------------------------------------------------|

G|----------------------------------------------------------------|
D|7---7-7---7-7---7-7-7-7-7---5---3---3-3---3-3---5---5-5---5-5---|
A|----------------------------------------------------------------|
E|----------------------------------------------------------------|

G|----------------------------------------------------------------|
D|7---7-7---7-7---7-7-7-7-7---5-------------------------5---5-5---|
A|--------------------------------3---3-3---3-3---5---5-----------|
E|----------------------------------------------------------------|

G|----------------------------------------------------------------|.
D|9---9-9---9-9---9-9-9-9-9---7---5---5-5---5-5---7---7-7---7-7---|.
A|----------------------------------------------------------------|.
E|----------------------------------------------------------------|.
                                                                   . x2
G|----------------------------------------------------------------|.
D|9---9-9---9-9---9-9-9-9-9---7-------------------------7---7-7---|.
A|--------------------------------5---5-5---5-5---7---7-----------|.
E|----------------------------------------------------------------|.

2:36

G|----5-5---------5-4-----7---7-------5-5---------5-4-------------|
D|7---------7-7-------7-----------7---------7-7-------7-5-7-------|
A|----------------------------------------------------------------|
E|----------------------------------------------------------------|

G|----5-5---------5-4-----7---7-------5-5---------5-4-------------|
D|7---------7-7-------7-----------7---------7-7-------7-5-7-------|
A|----------------------------------------------------------------|
E|----------------------------------------------------------------|

G|----5-5---------5-4-----7---7-------5-5---------5-4-------------|
D|7---------7-7-------7-----------7---------7-7-------7-5-7---7---|
A|----------------------------------------------------------------|
E|----------------------------------------------------------------|

G|----5-5---------5-4-----7---7-------5-5---------5-4-------------|
D|7---------7-7-------7-----------7---------7-7-------7-5-7-------|
A|----------------------------------------------------------------|
E|----------------------------------------------------------------|

2:50

G|----------------------------------------------------------------|
D|------------------------------------------------------4---------| x4
A|5h7-7-7---7-7---5h7-7-7---7-7---5h7-7-7---7-7---5-----------5---|
E|----------------------------------------------------------------|

G|------------------------------------------------------4---------|
D|5h7-7-7---7-7---5h7-7-7---7-7---5h7-7-7---7-7---5-----------5---| x4
A|----------------------------------------------------------------|
E|----------------------------------------------------------------|

3:19

G|------------------------------------------------5-4-------------|.
D|----------------5---------------7-------------------7-5-7-5-4---|.
A|5h7---7---7-7-----7---7---7-7-----7---7---7-7-------------------|.
E|----------------------------------------------------------------|.
                                                                   . x2
G|------------------------------------------------5-4-------------|.
D|----------------5---------------7-------------------7-5-7-------|.
A|5h7---7---7-7-----7---7---7-7-----7---7---7-7-------------------|.
E|----------------------------------------------------------------|.

3:33

G|----------------------------------------------------------------|
D|----------------------------------------------------------------| x3
A|7---7-7---7-7---7-7-7-7-7---5---3---3-3---3-3---5---5-5---5-5---|
E|----------------------------------------------------------------|

G|----------------------------------------------------------------|
D|----------------------------------------------------------------|
A|7---7-7---7-7---7-7-7-7-7---5---3---3-3---3-3---5---5-5-----5---|
E|----------------------------------------------------------------|

G|----------------------------------------------------------------|
D|5---5-5---5-5---5-5-5-5-5---5---1---1-1---1-1---3---3-3---3-3---|
A|----------------------------------------------------------------|
E|----------------------------------------------------------------|

G|------------------------------------------------------2---------|
D|5---5-5---5-5---5-5-5-5-5---3---1---1-1---1-1---3-----------3---|
A|----------------------------------------------------------------|
E|----------------------------------------------------------------|

G|----------------------------------------------------------------|
D|5---5-5---5-5---5-5-5-5-5---3---1---1-1---1-1---3---3-3---3-3---|
A|----------------------------------------------------------------|
E|----------------------------------------------------------------|

G|------------------------------------------------------2---------|
D|5---5-5---5-5---5-5-5-5-5---3---1---1-1---1-1---3-----------3---|
A|----------------------------------------------------------------|
E|----------------------------------------------------------------|

4:02

G|----------------------------------------------------------------|
D|7---7-7-7-7-7-7-7---7---7-------3---3-3-3-3-3---5-5-5-5-5-5-5-5-| x3
A|----------------------------------------------------------------|
E|----------------------------------------------------------------|

G|----------------------------------------------------------------|
D|7---7-7-7-7-7-7-7---7---7-------3-------------------------------|
A|----------------------------------------------------------------|
E|----------------------------------------------------------------|

G|----------------------------------------------------------------|
D|--------5-----------------------------------------------------/-|
A|----------------------------------------------------------------|
E|----------------------------------------------------------------|

G|----------------------------------------------------------------|
D|7-------------------------------7-7-7-7-7-7-7-7-7-7-5---7-5---5/|
A|------------------------------------------------------7-----7---|
E|----------------5-----------------------------------------------|

G|----------------------------------------------------------------|
D|7-7-7-7-7-7-7-7-7-7-7-7-7-7-7-7-5---7-5---5---------------------|
A|----------------------------------7-----7---7-6-5-3-------------|
E|----------------------------------------------------5-5-5-5-5-5-|

G|------------|
D|------------|
A|------------|
E|5---------5-|            
Submit corrections


        Aces High lessons Hard to play? Try these video lessons and learn fast Aces High lessons
        
↑ Back to top | Tablatures and chords for acoustic guitar and electric guitar, ukulele, drums are parodies/interpretations of the original songs. You may use it for private study, scholarship, research or language learning purposes only