» » »

Iron Maiden - 22 Acacia Avenue Bass

Artists:  A B C D E F G H I J K L M N O P Q R S T U V W X Y Z # 

22 Acacia Avenue Bass

(ver. 2) Click to play this song!
Iron Maiden
 Rating:
4/5 (4 votes)


 22 Acacia Avenue lessons Tabs too difficult? Try these video lessons and learn fast
 
                Iron Maiden
22 Acacia Avenue


h = hammer on
p = pull off
/ = slide up
\ = slide down


Riff A:

G|----------------------------------------------|
D|----------------------------------------------|
A|-5-7----5----5-5-777----5----5-5-333----5-777-|
E|----------------------------------------------|


Riff B:

G|---------------------------------------|
D|---------------------------------------|
A|-7-6-5-3-333333-5-555555-7-77777777777-|
E|---------------------------------------|


Riff C: Play 3 times

G|------------555---------------------------|
D|---------------3/5-------5/7--------------|
A|-7-6-5--3-3-------5-5555----5-77777777777-|
E|------------------------------------------|


Riff D: Play 1 time

G|-------------------------------------------------------------------------|
D|-------------------------------------------------------------------------|
A|-7-6-5-3-333333-5-555555-7----7----5----5-5-777----5----5-5-333----5-777-|
E|-------------------------------------------------------------------------|


Riff B (1x)

Riff C (3x)


Riff E: Play 1 time

G|-----------------------------------|
D|-----------------------------------|
A|-7-6-5-3-333333-5-555555--------12\|
E|-------------------------0---------|


Riff F: Play 2 times

G|-----------------------------------------------------|
D|-----------------------4-55--------------------------|
A|-7-777-7-777-7-777-7-7------7-777-7-777-7-777-7-7777-|
E|-----------------------------------------------------|

G|----------------------------------------------------------|
D|-----555-444-555-----555-444-54---------------------------|
A|-333-------------333-----------5--7-777-7-777-7-777-7-777-|
E|----------------------------------------------------------|


Riff G: Play 2 times
                                                first ending
G|---------------------------------------------|---------------------------|
D|---------------------------------------------|---------------------------|
A|3-3333-5-555555-2-2222-3-33333-3-3333-5-55555|5-77777777777-5-77777777777|
E|---------------------------------------------|---------------------------|

                                                  second ending
					        G|-------------------------|
                                                D|-------------------------|
					        A|-7-777-7-777-7-777-7-777-|
					        E|-------------------------|


Riff F (2x)

Riff G (2x with alternate ending the second time through)

		G|----------5-4---4-----------------|
		D|--------------7---7-5-7-5-4-5-4---|
		A|-2-222222-----------------------7-|
		E|----------------------------------|


Riff H: Play 4 times                                         Play after
                                                             the fourth time
G|----------------------------------------------------------|-----------|
D|------------------------------------------555-444-555-444-|-----------|
A|-5-7777777777--5-7777777777--5-7777777777-----------------|-7---------|
E|----------------------------------------------------------|-----------|


Riff I: Play 4 times

G|-------------------------------------------------|
D|-3-2-----------------4-5-4----------4-5-4--------|
A|-----3-2-------7-7---------5--5-5---------3--3-3-|
E|---------3-2-0-----------------------------------|


Riff J: Play 1 time

G|-----------------------------------999-777---------|
D|-3-2---------------------------------------999-777-|
A|-----3-2-------------------------------------------|
E|---------3-2-0-0000000-let-ring--------------------|


Riff K: Play 5 times

G|-------------------------------------------------------------------------|
D|-------------------------------------------------------------------------|
A|-5h777777-5h777777-5h777777-5h777777-3h555555-3h555555-3h555555-3h555555-|
E|-------------------------------------------------------------------------|
                                                                first ending
|--------------------------------------------------------------|-----------|
|--------------------------------------------------------------|7-5---5----|
|2h333333-2h333333-3h555555-3h555555-5h777777-5h777777-5h777777|----7---7-5|
|--------------------------------------------------------------|-----------|

							         endings 2-5
							       G|----------|
						               D|----------|
							       A|-5h777777-|
							       E|----------|
Riff L: Play 1 time

G|-------------------------------------------------------------------------|
D|-------------------------------------------------------------------------|
A|-5h777777-5h777777-5h777777-5h777777-3h555555-3h555555-3h555555-3h555555-|
E|-------------------------------------------------------------------------|

G|----------------------------------------------------------------777-|
D|---------------------------------------------------------777-999----|
A|2h333333-2h333333-3h555555-3h555555-5h777777-5h777777-999-----------|
E|--------------------------------------------------------------------|

G|-7h999999-7h999999-7h999999-7h999999-5h777777-5h777777-5h777777-5h777777-|
D|-------------------------------------------------------------------------|
A|-------------------------------------------------------------------------|
E|-------------------------------------------------------------------------|

G|4h555555-4h555555-5h777777-5h777777-7h99999999999-9-7---7----------------|
D|------------------------------------------------------9---9-7-9-7---7----|
A|------------------------------------------------------------------9---9-7|
E|-------------------------------------------------------------------------|


Riff M: Play 1 time

G|-------------------------------------------------------------------------|
D|-------------------------------------------------------------------------|
A|-5h777777-5h777777-5h777777-5h777777-3h555555-3h555555-3h555555-3h555555-|
E|-------------------------------------------------------------------------|

G|-------------------|
D|-------------------|
A|-2h333333-2h333333-|
E|-------------------|


Ending:

G|---------------------------||
D|-3-2-----------------------||
A|-----3-2---------------5-7-||
E|---------3-2-0-------------||

That's it. The timing may be hard to get sometimes, so listen to the song.  Good Luck
            
Submit corrections



        22 Acacia Avenue lessons Hard to play? Try these video lessons and learn fast 22 Acacia Avenue lessons
        
↑ Back to top | Tablatures and chords for acoustic guitar and electric guitar, ukulele, drums are parodies/interpretations of the original songs. You may use it for private study, scholarship, research or language learning purposes only