Home » I » Iration »

Iration - Time Bomb Tabs

Artists:  A B C D E F G H I J K L M N O P Q R S T U V W X Y Z # 

Time Bomb Tabs

(ver. 2) Click to play this song!
Iration
Intro 3x

e|------------------------------------------------------------------|
B|-----5-X--------8-X--------7-X------------------------------------|
G|-----5-X--------9-X--------7-X------------------------------------|
D|-----5-X--------9-X--------7-X------------------------------------|
A|-3-3--------7-7--------5-5----------------------------------------|
E|------------------------------------------------------------------|

4x

e|------------------------------------------------------------------|
B|-----5-X--------8-X--------7-X-7h8p7------------------------------|
G|-----5-X--------9-X--------7-X-------7-5--------------------------|
D|-----5-X--------9-X--------7-X------------------------------------|
A|-3-3--------7-7--------5-5----------------------------------------|
E|------------------------------------------------------------------|

[1st Verse 7x]

e|------------------------------------------------------------------|
B|-----5--------8--------7--------7---------------------------------|
G|-X-X-5-X--X-X-9-X--X-X-7-X--X-X-7-X-------------------------------|
D|-X-X-5-X--X-X-9-X--X-X-7-X--X-X-7-X-------------------------------|
A|-X-X-3-X--X-X-7-X--X-X-5-X--X-X-5-X-------------------------------|
E|------------------------------------------------------------------|

Last Time

e|------------------------------------------------------------------|
B|-X-X-5-X--X-X-8-X--3--5-------------------------------------------|
G|-X-X-5-X--X-X-9-X--4--5-------------------------------------------|
D|-X-X-5-X--X-X-9-X--4--5-------------------------------------------|
A|-X-X-3-X--X-X-7-X--2--3-------------------------------------------|
E|------------------------------------------------------------------|

[1st Chorus]

e|------3-X-X--3-X-X--7-X-X--7-X-X--3-X-X--3-X-X--7-X-X--7-X-X-----------|
B|-5~---5-X-X--5-X-X--8-X-X--8-X-X--5-X-X--5-X-X--8-X-X--8-X-X--3--5-----|
G|-5~---5-X-X--5-X-X--9-X-X--9-X-X--5-X-X--5-X-X--9-X-X--9-X-X--4--5-----|
D|-5~-----X-X----X-X--9-X-X--9-X-X----X-X----X-X--9-X-X--9-X-X--4--5-----|
A|-3~-----------------7------7--------------------7------7------2--3-----|
E|-----------------------------------------------------------------------|

[2nd Verse 7x]

e|------------------------------------------------------------------|
B|-----5--------8--------7--------7---------------------------------|
G|-X-X-5-X--X-X-9-X--X-X-7-X--X-X-7-X-------------------------------|
D|-X-X-5-X--X-X-9-X--X-X-7-X--X-X-7-X-------------------------------|
A|-X-X-3-X--X-X-7-X--X-X-5-X--X-X-5-X-------------------------------|
E|------------------------------------------------------------------|

Last Time

e|------------------------------------------------------------------|
B|-X-X-5-X--X-X-8-X--3--5-------------------------------------------|
G|-X-X-5-X--X-X-9-X--4--5-------------------------------------------|
D|-X-X-5-X--X-X-9-X--4--5-------------------------------------------|
A|-X-X-3-X--X-X-7-X--2--3-------------------------------------------|
E|------------------------------------------------------------------|

[2nd Chorus]

e|------3-X-X--3-X-X--7-X-X--7------3------3-X-X--7-X-X--7-X-X--------|
B|-5~---5-X-X--5-X-X--8-X-X--8-X-X--5-X-X--5-X-X--8-X-X--8-X-X--------|
G|-5~---5-X-X--5-X-X--9-X-X--9-X-X--5-X-X--5-X-X--9-X-X--9-X-X--------|
D|-5~-----X-X----X-X--9-X-X--9-X-X----X-X----X-X--9-X-X--9-X-X--------|
A|-3~-----------------7------7-X-X----------------7------7------------|
E|--------------------------------------------------------------------|


e|-3-X-X--3-X-X--7-X-X--7-X-X--3-X-X--3-X-X--7-X-X--7-X-X-----------|
B|-5-X-X--5-X-X--8-X-X--8-X-X--5-X-X--5-X-X--8-X-X--8-X-X----3--5---|
G|-5-X-X--5-X-X--9-X-X--9-X-X--5-X-X--5-X-X--9-X-X--9-X-X----4--5---|
D|---X-X----X-X--9-X-X--9-X-X----X-X----X-X--9-X-X--9-X-X----4--5---|
A|---------------7------7--------------------7------7--------2--3---|
E|------------------------------------------------------------------|

[Solo]

e|-10-----------------------10b------------------------------------|
B|----10~--8-10-10b-10-8-10~----10-12-10-8--8----------------------|
G|-----------------------------------------9--9-7-9-7/4\7~---------|
D|-----------------------------------------------------------------|
A|-----------------------------------------------------------------|
E|-----------------------------------------------------------------|

e|-10-----------------------10b------------------------------------|
B|----10~--8-10-10b-10-8-10~----10-12-10-8--8----------------------|
G|-----------------------------------------9--9-7-9-7/4\7~---------|
D|-----------------------------------------------------------------|
A|-----------------------------------------------------------------|
E|-----------------------------------------------------------------|


e|-10-----------------------10b------------------------------------|
B|----10~--8-10-10b-10-8-10~----10-12-10-8--8----------------------|
G|-----------------------------------------9--9-7-9-7/4\7~---------|
D|-----------------------------------------------------------------|
A|-----------------------------------------------------------------|
E|-----------------------------------------------------------------|

e|-10-----------------------10b------------------------------------|
B|----10~--8-10-10b-10-8-10~----10-12-10-8--8------8~--------------|
G|-----------------------------------------9--9-7-9----------------|
D|-----------------------------------------------------------------|
A|-----------------------------------------------------------------|
E|-----------------------------------------------------------------|


[Final Chorus]

e|------3-X-X--3-X-X--7-X-X--7------3------3-X-X--7-X-X--7-X-X--------|
B|-5~---5-X-X--5-X-X--8-X-X--8-X-X--5-X-X--5-X-X--8-X-X--8-X-X--------|
G|-5~---5-X-X--5-X-X--9-X-X--9-X-X--5-X-X--5-X-X--9-X-X--9-X-X--------|
D|-5~-----X-X----X-X--9-X-X--9-X-X----X-X----X-X--9-X-X--9-X-X--------|
A|-3~-----------------7------7-X-X----------------7------7------------|
E|--------------------------------------------------------------------|


e|-3-X-X--3-X-X--7-X-X--7-X-X--3-X-X--3-X-X--7-X-X--7-X-X-----------|
B|-5-X-X--5-X-X--8-X-X--8-X-X--5-X-X--5-X-X--8-X-X--8-X-X----3--5---|
G|-5-X-X--5-X-X--9-X-X--9-X-X--5-X-X--5-X-X--9-X-X--9-X-X----4--5---|
D|---X-X----X-X--9-X-X--9-X-X----X-X----X-X--9-X-X--9-X-X----4--5---|
A|---------------7------7--------------------7------7--------2--3---|
E|------------------------------------------------------------------|


            
Submit corrections

↑ Back to top | Tablatures and chords for acoustic guitar and electric guitar, ukulele, drums are parodies/interpretations of the original songs. You may use it for private study, scholarship, research or language learning purposes only