» » »

Iration - Dream Bass

Artists:  A B C D E F G H I J K L M N O P Q R S T U V W X Y Z # 

Dream Bass

(ver. 1) Click to play this song!
Iration
 Rating:
4/5 (4 votes)
                -------------------------------------------------------------------------------
-------------------------------------------------------------------------------

Alright So This Is A Great Song And I've Noticed No One Has Made The Effort To Tab Out 
The Bass Line So Here It Is...I Am Aware There Are Several Mistakes But I Think You Can 
Easily Fix Them Using This And Playing Along With The Audio..:P

Tuning:Standard

Repeat X5

G|---------------------------------------------------------------------------|
D|------------474-------------474------------7-------------------------------|
A|--5-------57---7--4-------57---7--5-------5-75-4-----7---------------------|
E|----55--------------44--------------55----------44-----77------------------|


G|-----------------------------------------------------------------------------|
D|-----------------------------------------------------------------------------|
A|-55----5555-----44-----4444-----55-----5555----44-----4----7-----------------|
E|---55--------------44--------------55-------------4-4---------77-------------|

Repeat X5

G|---------------------------------------------------------------------------|
D|------------474-------------474------------7-------------------------------|
A|--5-------57---7--4-------57---7--5-------5-75-4-----7---------------------|
E|----55--------------44--------------55----------44-----77------------------|

Repeat X2
G|-----------------------------------------------------------------------------|
D|-----------------------------------------------------------------------------|
A|-55----5555-----44-----4444-----55-----5555----44-----4----7-----------------|
E|---55--------------44--------------55-------------4-4---------77-------------|

Repeat X2

G|---------------------------------------------------------------------------|
D|------------474-------------474------------7-------------------------------|
A|--5-------57---7--4-------57---7--5-------5-75-4-----7---------------------|
E|----55--------------44--------------55----------44-----77------------------|

Repeat X1
G|-----------------------------------------------------------------------------|
D|-----------------------------------------------------------------------------|
A|-55----5555-----44-----4444-----55-----5555----44-----4----7-----------------|
E|---55--------------44--------------55-------------4-4---------77-------------|

| /  slide up
| \  slide down
| h  hammer-on
| p  pull-off
| ~  vibrato
| +  harmonic
| x  Mute note
===============================================================================
            
Submit corrections

↑ Back to top | Tablatures and chords for acoustic guitar and electric guitar, ukulele, drums are parodies/interpretations of the original songs. You may use it for private study, scholarship, research or language learning purposes only