» » »

Intwine - Cruel Man Tabs

Artists:  A B C D E F G H I J K L M N O P Q R S T U V W X Y Z # 

Cruel Man Tabs

(ver. 2) Click to play this song!
Intwine
 Rating:
4/5 (4 votes)

 Cruel Man lessons Tabs too difficult? Try these video lessons and learn fast
 
                Intro
D|-----------------------|------------------------|-------------------------|
A|-----------------------|------------------------|-------------------------|
F|-----------------------|------------------------|-------------------------|
C|-10--10--X-X-X-X-10-10-|-10---10--X-X-X-X-10-10-|-10--10--X-X-X-X-10-10---|
G|-8---8---X-X-X-X-8--8--|-8----8---X-X-X-X-8--8--|-8---8---X-X-X-X-8--8----|
C|-0---0---X-X-X-X-8--8--|-0----0---X-X-X-X-8--8--|-0---0---X-X-X-X-8--8----|
                            Chorus
 |-----------------------|  |------------------|--------------------------|
 |-----------------------|  |------------------|--------------------------|
 |----------------------o|  |------------------|--------------------------|
 |-7---7---X-X-X-X/10-10o|3X|-----7-------10---|\7--7--7---------h--p-----|
 |-5---5---X-X-X-X/8--8--|  |---5-5-----8-8-8--|\5--5--5-----12-121312--12|
 |-5---5---X-X-X-X/8--8--|  |-5-----5/8------8-|\0--0--0-0-12---------12--|

                        verse
 |-----------------|   |---------------------|---------------------|
 |-----------------|   |-10-----13-11-10-----|-10-----13-11-10-----|
 |-----------------|   |---10-----------10---|---10-----------10---|
 |-----7-------10--|   |-----12-----------12-|-----12-----------12-|
 |---5-5-----8-8---|   |---------------------|---------------------|
 |-5-----5/8-----8-|   |---------------------|---------------------|

 |--h--p-------------------|-10------10-------|
 |-101110-----13-11-10-----|---10--10--10--10-|
 |-------10-----------10---|-----10------10---|
 |---------12-----------12-|------------------|
 |-------------------------|------------------|
 |-------------------------|------------------|
            
Submit corrections


        Cruel Man lessons Hard to play? Try these video lessons and learn fast Cruel Man lessons
        
↑ Back to top | Tablatures and chords for acoustic guitar and electric guitar, ukulele, drums are parodies/interpretations of the original songs. You may use it for private study, scholarship, research or language learning purposes only