» » »

Into It Over It - Logan Square Tabs

Artists:  A B C D E F G H I J K L M N O P Q R S T U V W X Y Z # 

Logan Square Tabs

(ver. 2) Click to play this song!
Into It Over It
 Rating:
4/5 (4 votes)

 Logan Square lessons Tabs too difficult? Try these video lessons and learn fast
 
                C#F#C#FF#C# -Tuning

Intro x4
C#-------------------------------------------]
F#----0--------------------------------------]
F------0-------------------------------------]
C#------0------------------------------------]
F#--7----------------------------------------]
C#--0----------------------------------------]

C#---------------------------------------------------------------------------------]
F#----0---------0-------0--------0--------0--------0--------0--------0-------------]
F-------0--------0-------0--------0--------0--------0--------0--------0------------]
C#-------0--------0-------0--------0--------0--------0--------0--------0-----------]
F#--7--------7--------7--------7--------7--------7--------7--------7---------------]
C#--0--------0--------9--------7--------5--------5--------5--------5---------------]

Chorus                                          Repeat x2
C#------------------------------------------------------------------------]------------------]
F#----0---------0-------0--------0--------0--------0--------0--------0----]-----0-------0----]
F-------0--------0-------0--------0--------0--------0--------0--------0---]------0-------0---]
C#-------0--------0-------0--------0--------0--------0--------0--------0-]--------0-------0--]
F#--7--------7--------7--------7--------7--------7--------7--------7------]---7-------7------]
C#--7--------7--------7--------7--------5--------5--------5--------5------]---7-------7------]

End on
C#--------------]
F#--------------]
F---------------]
C#--------------]
F#--7-----------]
C#--0-----------]            
Submit corrections


        Logan Square lessons Hard to play? Try these video lessons and learn fast Logan Square lessons
        
↑ Back to top | Tablatures and chords for acoustic guitar and electric guitar, ukulele, drums are parodies/interpretations of the original songs. You may use it for private study, scholarship, research or language learning purposes only