» » »

In This Moment - Forever Tabs

Artists:  A B C D E F G H I J K L M N O P Q R S T U V W X Y Z # 

Forever Tabs

(ver. 2) Click to play this song!
In This Moment
 Rating:
3/5 (8 votes)

 Forever lessons Tabs too difficult? Try these video lessons and learn fast
 
                "e|------------------------------------------------------------------------| 
B|------------------------------------------------------------------------| 
G|----------------------------------------6*^--8--6---6-------------------|
D|--3--1-------1-------------6--8*--6--8------------8---8--6--------------|
A|-------4--3----4--3----------------------------------------8--6---------|
C|----------------------------------------------------------------8--6--8-|

e|------------------------------------------------------------------------|
B|-----------------------6--8^*--9p8h9p8h9--6h8p6h8-----------------------|
G|-------------6----6--8----------------------------6h8p6h8---6-----------|
D|-S8p6h8--S8p6--S8-----------------------------------------8---8--8*-----|
A|------------------------------------------------------------------------|
C|------------------------------------------------------------------------|

e|------------------------------------------------------------------------|
B|------------------------------------------------------------------------|
G|------------------------------------------------------------------------|
D|-T11p8p6h8p6h8-T11p8p6h8p6h8-T11p8p6h8-T11p8p6h8p6h8-T11p8p6h8p6h8------|
A|------------------------------------------------------------------------|
C|------------------------------------------------------------------------|

e|------------------------------------------------------------------------|
B|------------------------------------------------------------------------|
G|------------------------------------------------------------------------|
D|-T18p15p13h15p13h15-T18p15p13h15p13h15-T18p15p13h15-T18p15p13h15p13h15--|
A|------------------------------------------------------------------------|
C|------------------------------------------------------------------------|

e|------------------------------------------------------------------------|
B|--------------------T18p16p14h16p14h16-T18p16p14h16p14h16-T18p16p14h16--|
G|------------------------------------------------------------------------|
D|-T18p15p13h15p13h15-----------------------------------------------------|
A|------------------------------------------------------------------------|
C|------------------------------------------------------------------------|

e|---------------------------------------21p20p18h20h21p20p18h20h21^------|
B|-T18p16p14h16p14h16-T18p16p14h16p14h16----------------------------------|
G|------------------------------------------------------------------------|
D|------------------------------------------------------------------------|
A|------------------------------------------------------------------------|
C|------------------------------------------------------------------------|

e|-21^-21-20-18---18------------------------------------------------------|
B|--------------21---21-21^-----------------------------------------------|
G|------------------------------------------------------------------------|
D|------------------------------------------------------------------------|
A|------------------------------------------------------------------------|
C|---------------------------SDN------------------------------------------|

*=Harmonic
p=Pull Off
h=Hammer On
^=Bend
T=Finger Tap String
SDN=Slide Down Neck

Thanks!Comment!
"            
Submit corrections


        Forever lessons Hard to play? Try these video lessons and learn fast Forever lessons
        
↑ Back to top | Tablatures and chords for acoustic guitar and electric guitar, ukulele, drums are parodies/interpretations of the original songs. You may use it for private study, scholarship, research or language learning purposes only