Home » I » Interpol »

Interpol - Who Do You Think Bass

Artists:  A B C D E F G H I J K L M N O P Q R S T U V W X Y Z # 

Who Do You Think Bass

(ver. 1) Click to play this song!
Interpol
 Rating:
4/5 (4 votes)
                Who Do You Think

Verse 1
G |------------------------------------|
D |------------------------------------|
A |-33-3323322-2202355-555667777766533-|
D |------------------------------------|

G |----------------------------------------------------------|
D |----------------------------------------------------------|
A |-33-3323322-2202355-5556677777777-------------------------|
D |----------------------------------------------------------|

Chorus
G |----------------------------------------------------------|
D |----------------------------------------------------------|
A |-3333333322222222000000005555x-7/-------------------------|
D |----------------------------------------------------------|

G |----------------------------------------------------------------|
D |----------------------------------------------------------------|
A |-33333333222222220000000033x-5x-6x-7x---------------------------|
D |----------------------------------------------------------------|

Bridge (After Chorus, before Verse)
G |------------|
D |------------|
A |-777654-|
D |------------|

Verse 2
G |-------------------------------------------------------------|
D |-------------------------------------------------------------|
A |-33-3323322-2202355-555667777766533--------------------------|
D |-------------------------------------------------------------|

G |----------------------------------------------44997-------|
D |----------------------------------------------------------|
A |-33-3323322-2202355-55566777------------------------------|
D |----------------------------------------------------------|

G |----------------------------------------------------------|
D |----------------------------------------------------------|
A |-33-3323322-2202355-5556677777777-------------------------|
D |----------------------------------------------------------|

Chorus
Bridge

Verse 3
G |-------------------------------------------------------------|
D |-------------------------------------------------------------|
A |-33-3323322-2202355-555667777766533--------------------------|
D |-------------------------------------------------------------|

G |-----------------------------------------------44997-------|
D |-----------------------------------------------------------|
A |-33-3323322-2202355-555667x--------------------------------|
D |-----------------------------------------------------------|

G |----------------------------------------------------------|
D |----------------------------------------------------------|
A |-33-3323322-2202355-5556677777777-------------------------|
D |----------------------------------------------------------|

G |--------------------|
D |--------------------|
A |-3333--2222---------|
D |--------------------|

Break
G |------------------------------------------------------------------------|
D |------------------------------------------------------------------------|
A |-999AAAAAAAA99999AA9AAAAACCCCEEEECCC-|
D |-----------------------------------------------------------------------|

G |------------------------------------------------------------------------|
D |------------------------------------------------------------------------|
A |-AAAAAAAA99999AA9AAAAA99977777235777777775555555555555555555555555-|
D |-----------------------------------------------------------------------|

Verse 3

Outro
G |-------------------------------------------------------------------------------------|
D |-------------------------------------------------------------------------------------|
A |-3333--2222-0235555-777766553333--2222-0235555-7777----------------------------------|
D |-------------------------------------------------------------------------------------|

x = stop, \ = slide down, A = 10, C = 12, E = 14
            
Submit corrections

↑ Back to top | Tablatures and chords for acoustic guitar and electric guitar, ukulele, drums are parodies/interpretations of the original songs. You may use it for private study, scholarship, research or language learning purposes only