» » »

Interpol - The Undoing Tabs

Artists:  A B C D E F G H I J K L M N O P Q R S T U V W X Y Z # 

The Undoing Tabs

(ver. 1) Click to play this song!
Interpol
 Rating:
4/5 (4 votes)

 The Undoing lessons Tabs too difficult? Try these video lessons and learn fast
 
                THE UNDOING

VERSE

daniel:
|----------------------------------|
|-7---7---7---7---7---7---7---7----|
|---8---8---8---8---8---8---8---8--|
|----------------------------------|
|----------------------------------|
|----------------------------------|

|----------------------------------|
|-7---7---7---7---7---7---7---7----|
|---8---8---8---8---8---8---8---8--|
|----------------------------------|
|----------------------------------|
|----------------------------------|

|----------------------------------|
|-9---9---9---9---9---9---9---9----|
|---9---9---9---9---9---9---9---9--|
|----------------------------------|
|----------------------------------|
|----------------------------------|

|----------------------------------|
|-9---9---9---9---9---9---9---9----|
|---9---9---9---9---9---9---9---9--|
|----------------------------------|
|----------------------------------|
|----------------------------------|

|----------------------------------|
|-9---9---9---9---9---9---9---9----|
|---8---8---8---8---8---8---8---8--|
|----------------------------------|
|----------------------------------|
|----------------------------------|

|----------------------------------|
|-9---9---9---9---9---9---9---9----|
|---8---8---8---8---8---8---8---8--|
|----------------------------------|
|----------------------------------|
|----------------------------------|

paul:
|----------------------------------|
|-(6s7)----------------------------|
|--7s8-----------------------------|
|----------------------------------|
|----------------------------------|
|----------------------------------|

I was on my way
I was on my way to tell you it's no good
I was on my way
Chasing my damage

I was chased, thrilled and altered
Chasing my damage
Because I was chased, thrilled and altered
And it raised me


CHORUS

daniel: all 2 times
|--------------------------------------------------|
|-12----12----11----11----11----11----11----11-----|
|----11----11----11----11----10----10----10----10--|
|--------------------------------------------------|
|--------------------------------------------------|
|--------------------------------------------------|

|--------------------------------------------------|
|-11---11---11---11---11----11----11----11---------|
|----8----8----8----8----10----10----10----10------|
|--------------------------------------------------|
|--------------------------------------------------|
|--------------------------------------------------|

|--------------------------------------------------|
|--11----11----11----11----11----11----11----11----|
|-----10----10----10----10----10----10----10----10-|
|--------------------------------------------------|
|--------------------------------------------------|
|--------------------------------------------------|

|--------------------------------------------------|
|-11----11-----------------------------------------|
|----10----10--------------------------------------|
|--------------------------------------------------|
|--------------------------------------------------|
|--------------------------------------------------|

paul:
|-11----11----11----11-----9----9----9----9--------|
|----12----12----12----12----11---11---11---11-----|
|--------------------------------------------------|
|--------------------------------------------------|
|--------------------------------------------------|
|--------------------------------------------------|

|-9---9---9---9----11----11----9----9----9----9----|
|---7---7---7---7-----11----11---11---11---11---11-|
|--------------------------------------------------|
|--------------------------------------------------|
|--------------------------------------------------|
|--------------------------------------------------|

|----9----9----9----9----9----9----9----9----------|
|------11---11---11---11---11---11---11---11-------|
|--------------------------------------------------|
|--------------------------------------------------|
|--------------------------------------------------|
|--------------------------------------------------|

|--9----9--------------------------|
|----11---11-----------------------|
|----------------------------------|
|----------------------------------|
|----------------------------------|
|----------------------------------|

Suele tener
Me suelto
Me suelto en el deshacer
Al puro perder el ganar no compara


VERSE
daniel (same as verse 1)

I always thought you had great style
And style was worthwhile
Because I was
I was on my way
Sobreviviré

Chasing my damage
I was chased, thrilled and altered
And it raised me
Chasing my damage
Because I was chased, thrilled and altered
And it raised me


CHORUS

Suele tener
Me suelto
Me suelto en el deshacer
Al puro perder el ganar no compara

OUTRO
daniel plays chorus on and on

Please please the place we're in now
Please
Please please the place we're in now
Please
Please please the place we're in now
Please
Please please the place we're in now
Please 
            
Submit corrections


        The Undoing lessons Hard to play? Try these video lessons and learn fast The Undoing lessons
        
↑ Back to top | Tablatures and chords for acoustic guitar and electric guitar, ukulele, drums are parodies/interpretations of the original songs. You may use it for private study, scholarship, research or language learning purposes only