» » »

Interpol - The Rover Tabs

Artists:  A B C D E F G H I J K L M N O P Q R S T U V W X Y Z # 

The Rover Tabs

(ver. 1) Click to play this song!
Interpol
 Rating:
4.4/5 (17 votes)

 The Rover lessons Tabs too difficult? Try these video lessons and learn fast
 
                [Intro]
Lead Guitar
e|---------------------------------------------------------------------------|
B|-------13-13-17-17---------------13-13-17-17---------------13-13-17-17-----|
G|-14-14-------------12\-(5)/14-14-------------12\-(5)/14-14-------------12/-|
D|---------------------------------------------------------------------------|
A|---------------------------------------------------------------------------|
E|---------------------------------------------------------------------------|

e|-----------------15-15-15-15/17-17-17---|
B|-----------13-13------------------------|
G|-(5)/14-14------------------------------|
D|----------------------------------------|
A|----------------------------------------|
E|----------------------------------------|

[Verse 1]
Rhythm Guitar
e||------------------|------------------|------------------|------------------|
B||------------------|------------------|------------------|------------------|
G||------------------|------------------|------------------|------------------|
G||------------------|------------------|------------------|------------------|
A||------------------|------------------|------------------|------------------|
E||-/5-5-5-5-5-5-5-5-|-/5-5-5-5-5-5-5-5-|-/5-5-5-5-5-5-5-5-|-/5-5-5-5-5-5-5-5-|

e|--------------------------|--------------------------|--------------------------|
B|--------------------------|--------------------------|--------------------------|
B|--------------------------|--------------------------|--------------------------|
D|--------------------------|--------------------------|--------------------------|
A|--------------------------|--------------------------|--------------------------|
E|-/10-10-10-10-10-10-10-10-|-/10-10-10-10-10-10-10-10-|-/10-10-10-10-10-10-10-10-|

e|-----------------------|| (x2)
B|-----------------------||
G|-----------------------||
D|-----------------------||
A|-----------------------||
E|-/10-10-10-10-10-8-8-7-||

Lead Guitar
e||----------------------------------------------------------------------------|| (x2)
B||--------13-13-17-17---------------13-13-17-17---------------13-13-17-17-----||
G||-/14-14-------------12\-(5)/14-14-------------12\-(5)/14-14-------------12/-||
D||----------------------------------------------------------------------------||
A||----------------------------------------------------------------------------||
E||----------------------------------------------------------------------------||
                           (x4)
e||-------------15-15-------||-------------15-15-15-15-17-17-17--|
B||-------13-13-------13----||-------13-13-----------------------|
G||-14-14----------------14-||-14-14-----------------------------|
D||-------------------------||-----------------------------------|
A||-------------------------||-----------------------------------|
E||-------------------------||-----------------------------------|

[Chorus 1]
Rhythm Guitar
e||-------------------------|-------------------------|---------------------|| (x2)
B||-13-13-13-13-13-13-13-13-|-12-12-12-12-12-12-12-12-|-8-8-8-8-10-10-10-10-||
G||--x--x--x--x--x--x--x--x-|-x--x--x--x--x--x--x--x--|-x-x-x-x--x--x--x--x-||
D||-10-10-10-10-10-10-10-10-|-9--9--9--9--9--9--9--9--|-5-5-5-5--7--7--7--7-||
A||-------------------------|-------------------------|---------------------||
E||-------------------------------------------------------------------------||

Lead Guitar
e||-------------------------|----------------------------|----------------15-15-15-17-|| (x2)
B||-------------------------|-12-12-12-12-15-15-12h13p12-|-13-13-12h13p12-------------||
G||-14-14-14-14-12-12-12-12-|----------------------------|----------------------------||
D||-------------------------|----------------------------|----------------------------||
A||-------------------------|----------------------------|----------------------------||
E||-------------------------|----------------------------|----------------------------||

[Verse 2]
Rhythm Guitar
e||------------------|------------------|------------------|------------------|
B||------------------|------------------|------------------|------------------|
G||------------------|------------------|------------------|------------------|
G||------------------|------------------|------------------|------------------|
A||------------------|------------------|------------------|------------------|
E||-/5-5-5-5-5-5-5-5-|-/5-5-5-5-5-5-5-5-|-/5-5-5-5-5-5-5-5-|-/5-5-5-5-5-5-5-5-|

e|--------------------------|--------------------------|--------------------------|
B|--------------------------|--------------------------|--------------------------|
B|--------------------------|--------------------------|--------------------------|
D|--------------------------|--------------------------|--------------------------|
A|--------------------------|--------------------------|--------------------------|
E|-/10-10-10-10-10-10-10-10-|-/10-10-10-10-10-10-10-10-|-/10-10-10-10-10-10-10-10-|

e|-----------------------|| (x2)
B|-----------------------||
G|-----------------------||
D|-----------------------||
A|-----------------------||
E|-/10-10-10-10-10-8-8-7-||

Lead Guitar
e||-------------------------|----------------------------|----------------15-15-15-17-|| (x2)
B||-------------------------|-12-12-12-12-15-15-12h13p12-|-13-13-12h13p12-------------||
G||-14-14-14-14-12-12-12-12-|----------------------------|----------------------------||
D||-------------------------|----------------------------|----------------------------||
A||-------------------------|----------------------------|----------------------------||
E||-------------------------|----------------------------|----------------------------||
                           (x4)
e||-------------15-15-------||-------------15-15-15-15-17-17-17--|
B||-------13-13-------13----||-------13-13-----------------------|
G||-14-14----------------14-||-14-14-----------------------------|
D||-------------------------||-----------------------------------|
A||-------------------------||-----------------------------------|
E||-------------------------||-----------------------------------|

[Chorus 2]
Rhythm Guitar
e||-------------------------|-------------------------|---------------------|| (x4)
B||-13-13-13-13-13-13-13-13-|-12-12-12-12-12-12-12-12-|-8-8-8-8-10-10-10-10-||
G||--x--x--x--x--x--x--x--x-|-x--x--x--x--x--x--x--x--|-x-x-x-x--x--x--x--x-||
D||-10-10-10-10-10-10-10-10-|-9--9--9--9--9--9--9--9--|-5-5-5-5--7--7--7--7-||
A||-------------------------|-------------------------|---------------------||
E||-------------------------------------------------------------------------||

Lead Guitar
e||-------------------------|----------------------------|----------------15-15-15-17-|| (x2)
B||-------------------------|-12-12-12-12-15-15-12h13p12-|-13-13-12h13p12-------------||
G||-14-14-14-14-12-12-12-12-|----------------------------|----------------------------||
D||-------------------------|----------------------------|----------------------------||
A||-------------------------|----------------------------|----------------------------||
E||-------------------------|----------------------------|----------------------------||

e||-------------------------|-------------15-15-15-15-|--------------------------|| (x2)
B||-------------------------|-17-17-17-17-------------|-13-13-13-13-15-15-13-12--||
G||-14-14-14-14-12-12-12-12-|-------------------------|--------------------------||
D||-------------------------|-------------------------|--------------------------||
A||-------------------------|-------------------------|--------------------------||
E||-------------------------|-------------------------|--------------------------||

[Bridge]
Lead Guitar
e|-------------------|-----------------------|----------------|
B|----13-17----------|-------13-13-17-17-----|----13-17-------|
G|-14-------12h14h12-|-14-14-------------12\-|-14-------12\---|
D|-------------------|-----------------------|----------------|
A|-------------------|-----------------------|----------------|
E|-------------------|-----------------------|----------------|

[Verse 3]
Rhythm Guitar
e||------------------|------------------|------------------|------------------|
B||------------------|------------------|------------------|------------------|
G||------------------|------------------|------------------|------------------|
G||------------------|------------------|------------------|------------------|
A||------------------|------------------|------------------|------------------|
E||-/5-5-5-5-5-5-5-5-|-/5-5-5-5-5-5-5-5-|-/5-5-5-5-5-5-5-5-|-/5-5-5-5-5-5-5-5-|

e|--------------------------|--------------------------|--------------------------|
B|--------------------------|--------------------------|--------------------------|
B|--------------------------|--------------------------|--------------------------|
D|--------------------------|--------------------------|--------------------------|
A|--------------------------|--------------------------|--------------------------|
E|-/10-10-10-10-10-10-10-10-|-/10-10-10-10-10-10-10-10-|-/10-10-10-10-10-10-10-10-|

e|-----------------------|| (x2)
B|-----------------------||
G|-----------------------||
D|-----------------------||
A|-----------------------||
E|-/10-10-10-10-10-8-8-7-||

Lead Guitar
e||-------------------------|----------------------------|----------------15-15-15-17-|| (x2)
B||-------------------------|-12-12-12-12-15-15-12h13p12-|-13-13-12h13p12-------------||
G||-14-14-14-14-12-12-12-12-|----------------------------|----------------------------||
D||-------------------------|----------------------------|----------------------------||
A||-------------------------|----------------------------|----------------------------||
E||-------------------------|----------------------------|----------------------------||
                           (x4)
e||-------------15-15-------||-------------15-15-15-15-17-17-17--|
B||-------13-13-------13----||-------13-13-----------------------|
G||-14-14----------------14-||-14-14-----------------------------|
D||-------------------------||-----------------------------------|
A||-------------------------||-----------------------------------|
E||-------------------------||-----------------------------------|


[Outro]
Rhythm Guitar
e||-------------------------|-------------------------|---------------------|| (x8)
B||-13-13-13-13-13-13-13-13-|-12-12-12-12-12-12-12-12-|-8-8-8-8-10-10-10-10-||
G||--x--x--x--x--x--x--x--x-|-x--x--x--x--x--x--x--x--|-x-x-x-x--x--x--x--x-||
D||-10-10-10-10-10-10-10-10-|-9--9--9--9--9--9--9--9--|-5-5-5-5--7--7--7--7-||
A||-------------------------|-------------------------|---------------------||
E||-------------------------------------------------------------------------||

Lead Guitar
e||-------------------------|----------------------------|----------------15-15-15-17-|| (x2)
B||-------------------------|-12-12-12-12-15-15-12h13p12-|-13-13-12h13p12-------------||
G||-14-14-14-14-12-12-12-12-|----------------------------|----------------------------||
D||-------------------------|----------------------------|----------------------------||
A||-------------------------|----------------------------|----------------------------||
E||-------------------------|----------------------------|----------------------------||

e||-------------------------|-------------15-15-15-15-|--------------------------|| (x6)
B||-------------------------|-17-17-17-17-------------|-13-13-13-13-15-15-13-12--||
G||-14-14-14-14-12-12-12-12-|-------------------------|--------------------------||
D||-------------------------|-------------------------|--------------------------||
A||-------------------------|-------------------------|--------------------------||
E||-------------------------|-------------------------|--------------------------||


            
Submit corrections


        The Rover lessons Hard to play? Try these video lessons and learn fast The Rover lessons
        
↑ Back to top | Tablatures and chords for acoustic guitar and electric guitar, ukulele, drums are parodies/interpretations of the original songs. You may use it for private study, scholarship, research or language learning purposes only