Home » I » Interpol »

Interpol - The Heinrich Maneuver Bass

Artists:  A B C D E F G H I J K L M N O P Q R S T U V W X Y Z # 

The Heinrich Maneuver Bass

(ver. 1) Click to play this song!
Interpol
[Intro]
"0:12"
 
G|-----------------|-----------------|-----------------|
D|-----------9-9-9-|-----------------|-----------5-5-5-|
A|-----------------|-----------5-5-5-|-5-5-5-5-5-------|
E|-----------------|-3-3-3-3-3-------|-----------------|
 
G|-----------------|-----------------|-----------------|-----------------|
D|-----------------|-----------------|-----------------|-----------------|
A|-7-----2-2-2-----|-------0-0-0-----|-------2-2-2-----|-------0-0-0-----|
E|---------------3-|-3-3-----------3-|-3-3-----------3-|-3-3-----------0-|
 
G|-----------------|-----------------|-----------------|-----------------|
D|-----------------|-----------------|-----------------|-----------------|
A|-------2-2-2-----|-------2-2-2-----|-------2-2-2-----|-------0-0-0-----|
E|-0-0-----------0-|-0-0-----------3-|-3-3-----------3-|-3-3-----------3-|
 
G|-----------------|-----------------|-----------------|-----------4-4-4-|
D|-----------------|-----------------|-----------------|-----------------|
A|-------2-2-2-----|-------0-0-0-----|-------2-2-2-----|-------2-2-------|
E|-3-3-----------3-|-3-3-----------0-|-0-0-----------0-|0-0--------------|
 
 
[Bridge]
 
G|-----------------|-----------------|-----------------|----9-9----------|
D|-----------------|-----------------|-----------------|--9-----9-7-9----|
A|-----------5-5-5-|-----------5-5-5-|-7-7-7-7-7-------|-7---------------|
E|-3-3-3-3-3-------|-5-5-5-5-5-------|-----------7-7-7-|-----------------|
 
G|-----------------|-----------------|-----------------|------9-9--------|
D|-----------------|-----------------|-----------------|-----9----9-9-10-|
A|-----------5-5-5-|-----------5-5-5-|-7-7-7-7-7-------|---7-------------|
E|-3-3-3-3-3-------|-5-5-5-5-5-------|-----------7-7-7-|-----------------|
 
 
[Pre-Chorus]
 
G|-----------------|-----------------|-----------------|----4-4----4-4/5-|
D|-----5-5-----5-5-|-----7-7-----7-7-|-----9-9-----9-9-|-----------------|
A|---7-----7-7-----|---7-----7-7-----|-7-7-----7-7-----|-------7-7-------|
E|-----------------|-----------------|-----------------|---0-------------|
 
G|-----------------|-----------------|-----------------|-----4-4-----4-5-|
D|-----5-5-----5-5-|-----7-7-----7-7-|-----9-9-----9-9-|---------5-------|
A|---7-----7-7-----|---7-----7-7-----|-7-7-----7-7-----|-----------7-----|
E|-----------------|-----------------|-----------------|---0-------------|
 
 
 
[Chorus]
 
G|---5-5-5-5-4---2-|---2-2-2-2-------|-----------------|-----------2-4-5-|
D|-----------------|-----------5-4-2-|---2-2-2-2-4---5-|---5-5-5-5-------|
A|-----------------|-----------------|-----------------|-----------------|
E|-----------------|-----------------|-----------------|-----------------|
 
G|---5-5-5-5-4-4-2-|-2-2-------------|
D|-----------------|-----5-5-4-4-3-3-|
A|-----------------|-----------------|
E|-----------------|-----------------|
 
[Interlude]
 
G|-----------------|------------------|-----------------|
D|-2-2-------------|-2-2--------------|-2-2-------------|
A|-----------------|------------------|-----------5-5-6-|
E|---------------0-|----------------0-|-----------------|
 
[Verse 2]
 
G|-----------------|-----------------|-----------------|-----------------|
D|-----------------|-----------------|-----------------|-----------------|
A|-7-----2-2-2-----|-------0-0-0-----|-------2-2-2-----|-------0-0-0-----|
E|---------------3-|-3-3-----------3-|-3-3-----------3-|-3-3-----------0-|
 
G|-----------------|-----------------|-----------------|-----------------|
D|-----------------|-----------------|-----------------|-----------------|
A|-------2-2-2-----|-------2-2-2-----|-------2-2-2-----|-------0-0-0-----|
E|-0-0-----------0-|-0-0-----------3-|-3-3-----------3-|-3-3-----------3-|
 
G|-----------------|-----------------|-----------------|-----------4-4-4-|
D|-----------------|-----------------|-----------------|-----------------|
A|-------2-2-2-----|-------0-0-0-----|-------2-2-2-----|-------2-2-------|
E|-3-3-----------3-|-3-3-----------0-|-0-0-----------0-|0-0--------------|
[Bridge]
 
G|-----------------|-----------------|-----------------|----9-9----------|
D|-----------------|-----------------|-----------------|--9-----9-7-9----|
A|-----------5-5-5-|-----------5-5-5-|-7-7-7-7-7-------|-7---------------|
E|-3-3-3-3-3-------|-5-5-5-5-5-------|-----------7-7-7-|-----------------|
 
G|-----------------|-----------------|-----------------|------9-9--------|
D|-----------------|-----------------|-----------------|-----9----9-9-10-|
A|-----------5-5-5-|-----------5-5-5-|-7-7-7-7-7-------|---7-------------|
E|-3-3-3-3-3-------|-5-5-5-5-5-------|-----------7-7-7-|-----------------|
 
 
[Pre-Chorus]
 
G|-----------------|-----------------|-----------------|----4-4----4-4/5-|
D|-----5-5-----5-5-|-----7-7-----7-7-|-----9-9-----9-9-|-----------------|
A|---7-----7-7-----|---7-----7-7-----|-7-7-----7-7-----|-------7-7-------|
E|-----------------|-----------------|-----------------|---0-------------|
 
G|-----------------|-----------------|-----------------|-----4-4-----4-5-|
D|-----5-5-----5-5-|-----7-7-----7-7-|-----9-9-----9-9-|---------5-------|
A|---7-----7-7-----|---7-----7-7-----|-7-7-----7-7-----|-----------7-----|
E|-----------------|-----------------|-----------------|---0-------------|
 
 
[Chorus]
 
G|---5-5-5-5-4---2-|---2-2-2-2-------|-----------------|-----------2-4-5-|
D|-----------------|-----------5-4-2-|---2-2-2-2-4---5-|---5-5-5-5-------|
A|-----------------|-----------------|-----------------|-----------------|
E|-----------------|-----------------|-----------------|-----------------|
 
G|---5-5-5-5-4-4-2-|-2-2-5-5-7-7-9-9-|
D|-----------------|-----------------|
A|-----------------|-----------------|
E|-----------------|-----------------|
 
[Bridge/Solo]
 
G|-5---5-5-5-4-4-2-|---2-2-2-2-------|-----------------|-----------2-4-5-|
D|-----------------|-----------5-4-2-|---2-2-2-2-4---5-|---5-5-5-5-------|
A|-----------------|-----------------|-----------------|-----------------|
E|-----------------|-----------------|-----------------|-----------------|
 
G|-----5-5-5-4-5-2-|---2-2-2---------|-----------------|-----------------|
D|-----------------|---------5-5-4-2-|---2-2-2-2-4---5-|-----------------|
A|-----------------|-----------------|-----------------|-----------0-2-3-|
E|-----------------|-----------------|-----------------|---0-3-3-3-------|
 
 
[Chorus]
 
G|-----------------|-----------------|------------------|---------------------|
D|-----------------|-----------------|------------------|---------------------|
A|---3-3-3-3-3-2---|-----------5-6-7-|---7-7-7-7-7-9-10-|---10-10-10-10-0-2-3-|
E|---------------5-|---5-5-5-5-------|------------------|---------------------|
 
G|-----------------|-----------------|------------------|---------------------|
D|-----------------|-----------------|------------------|---------------------|
A|---3-3-3-3-3-2---|-----------5-6-7-|---7-7-7-7-7-9-10-|---10-10-10-10-0-2-3-|
E|---------------5-|---5-5-5-5-------|------------------|---------------------|
 
 
[Outro]
 
G|-----------------|-----------------|-----------------|-----------------|
D|-----------------|-----------------|-----------------|-----------------|
A|---3-3-3-3-3-2---|-----------------|-----------------|-----------0-2-3-|
E|---------------5-|---5-5-5-5-5-3-0-|-0-0-0-0-0-0-2-3-|-3-3-3-3-3-------|
 
G|-----------------|-----------------|-----------------|-----------------|
D|-----------------|-----------------|-----------------|-----------------|
A|---3-3-3-3-3-2---|-----------------|-----------------|-----------0-2-3-|
E|---------------5-|---5-5-5-5-5-3-0-|-0-0-0-0-0-0-2-3-|-3-3-3-3-3-------|
 
G|-----------------|-----------------|-----------------|-----------------|
D|-----------------|-----------------|-----------------|-----------------|
A|-3-3-3-3-3-3-2---|-----------------|-----------------|-----------0-2-3-|
E|---------------5-|-5-5-5-5-5-5-3-0-|-0-0-0-0-0-0-2-3-|-3-3-3-3-3-------|
 
G|-----------------|-----------------|-----------------|-----------------|
D|-----------------|-----------------|-----------------|-----------------|
A|-3-3-3-3-3-3-2---|-----------------|-----------------|-----------0-2-3-|
E|---------------5-|-5-5-5-5-5-5-3-0-|-0-0-0-0-0-0-2-3-|-3-3-3-3-3-------|
 
G|-----------------|-----------------|-----------------|-----------------|
D|-----------------|-----------------|-----------------|-----------------|
A|-3-3-3-3-3-3-2---|-----------------|-----------------|-----------------|
E|---------------5-|-5-5-5-5-5-5-3-0-|-----------------|-----------------|
            
Submit corrections

↑ Back to top | Tablatures and chords for acoustic guitar and electric guitar, ukulele, drums are parodies/interpretations of the original songs. You may use it for private study, scholarship, research or language learning purposes only