Home » I » Interpol »

Interpol - Success Bass

Artists:  A B C D E F G H I J K L M N O P Q R S T U V W X Y Z # 

Success Bass

(ver. 1) Click to play this song!
Interpol
 Rating:
4/5 (4 votes)
                Artist :: Interpol
Song :: Success
Album :: Interpol

Tuning :: DADG

Enter at 00:34/00:35 - Album Version
Pre-Verse
G|------------------------------------------|
D|------------------------------------------|
A|-5-7-777--7/22222---2--555----------------|
D|------------------------------12/5-555--5-|
x1

G|------------------------------------------|
D|------------------------------------------|
A|-777---7/2-222---2--555-------------------|
D|------------------------------12/5-555--5-|
x2

G|--------------------------------------------------------|
D|----------------------------------------55555555-555/14-|
A|-777----7/2-222----2----555-----------------------------|
D|-------------------------------12/5-555-----------------|
 
Verse1
G|----99999-99-----------------|
D|-----------------------------|
A|-777-----------202-02-02--22-|
D|-----------------------------|

G|----77777-77-----------------|
D|-----------------------------|
A|-555-------------------------|
D|---------------535-35-35--55-|
x3

G|----99999-99-----------------|
D|-----------------------------|
A|-777-----------202-02-02--22-|
D|-----------------------------|

G|----77777-77------------------|
D|------------------------------|
A|-555--------------------------|
D|---------------535-35-35--55/-|

Chorus
G|--------------------------------------------------------------|
D|--------------------------------------------------------------|
A|---------------------------------555-55-55--55----------------|
D|-9-999-99-99--99--777-77-77--77-----------------535-35-35--55-|

G|----------------------------|
D|----------------------------|
A|-555-56-6-66----------------|
D|--------------535-35-35--57-|

G|--------------------------------------------------------------|
D|--------------------------------------------------------------|
A|---------------------------------555-55-55--55----------------|
D|-9-999-99-99--99--777-77-77--77-----------------535-35-35--55-|

G|--------------|
D|--------------|
A|-5-555---6-66-|
D|--------------|

Verse2
G|------99999-99-----------------|
D|-------------------------------|
A|-7-777-----------202-02-02--22-|
D|-------------------------------|

G|----77777-77-----------------|
D|-----------------------------|
A|-555-------------------------|
D|---------------535-35-35--55-|
x1

G|------99999-99-----------------|
D|-------------------------------|
A|-7-777-----------202-02-02--22-|
D|-------------------------------|

G|----77777-77-----------------|
D|-----------------------------|
A|-555-------------------------|
D|---------------535-35-35--55-|
x2

G|----99999-99-----------------|
D|-----------------------------|
A|-777-----------202-02-02--22-|
D|-----------------------------|

G|----77777-77------------------|
D|------------------------------|
A|-555--------------------------|
D|---------------535-35-35--55/-|

Chorus
G|--------------------------------------------------------------|
D|--------------------------------------------------------------|
A|---------------------------------555-55-55--55----------------|
D|-9-999-99-99--99--777-77-77--77-----------------535-35-35--55-|

G|----------------------------|
D|----------------------------|
A|-555-56-6-66----------------|
D|--------------535-35-35--57-|
x3

G|--------------------------------------------------------------|
D|--------------------------------------------------------------|
A|---------------------------------555-55-55--55----------------|
D|-9-999-99-99--99--777-77-77--77-----------------535-35-35--55-|

G|----------------|
D|----------------|
A|-555-55-55-6666-|
D|----------------|
            
Submit corrections

↑ Back to top | Tablatures and chords for acoustic guitar and electric guitar, ukulele, drums are parodies/interpretations of the original songs. You may use it for private study, scholarship, research or language learning purposes only