Home » I » Interpol »

Interpol - Song Seven Bass

Artists:  A B C D E F G H I J K L M N O P Q R S T U V W X Y Z # 

Song Seven Bass

(ver. 1) Click to play this song!
Interpol
 Rating:
4/5 (4 votes)
                Interpol - Song Seven

Intro/Verse

G|---------------------------------|---------------------------------|
D|---------------------------------|---------------------------------|
A|-10--10--9---9---10--10--10--10--|-10--10--9---9---10--10--9---0---|
D|---------------------------------|---------------------------------| 
                                                                       x3
G|---------------------------------|---------------------------------|
D|---------------------------------|---------------------------------|
A|-2---2---2---2---2---2---4---4---|-5---5---5---5---5---5---5---5---| 
D|---------------------------------|---------------------------------|
___________

G|---------------------------------|---------------------------------|
D|---------------------------------|---------------------------------|
A|-10--10--9---9---10--10--10--10--|-10--10--9---9---10--10--9---0---|
D|---------------------------------|---------------------------------|

G|---------------------------------|---------------------------------|
D|---------------------------------|---------------------------------|
A|-2---2-2-2---2-2-2---2-2-4---4-4-|-5---5-5-5---5-5-5---5-5-5---5---|
D|---------------------------------|---------------------------------|

Chorus

G|---------------------------------|---------------------------------|
D|---------------------------------|---------------------------------|
A|-10--10--9---9-9-9---5-5-5---10--|-----10--10--9---9---5-5-5---0---|
D|---------------------------------|---------------------------------|
                                                                       x2
G|---------------------------------|---------------------------------|
D|---------------------------------|---------------------------------|
A|-2---0---2-------0---2---0---0---|-----5-5-5---0---5---5---5-5-0---|
D|---------------------------------|---------------------------------|

Verse

G|---------------------------------|---------------------------------|
D|---------------------------------|---------------------------------|
A|-10--10--9---9---10--10--10--10--|-10--10--9---9---10--10--9---0---|
D|---------------------------------|---------------------------------|  
                                                                        
G|---------------------------------|---------------------------------| 
D|---------------------------------|---------------------------------|
A|-2---2---2---2---2---2---4---4---|-5---5---5---5---5---5---5---5---| 
D|---------------------------------|---------------------------------|

G|---------------------------------|---------------------------------|
D|---------------------------------|---------------------------------|
A|-10--10--9---9---10--10--10--10--|-10--10--9---9---10--10--9---0---|
D|---------------------------------|---------------------------------|

G|---------------------------------|---------------------------------|
D|---------------------------------|---------------------------------|
A|-2---2-2-2---2-2-2---2-2-4---4-4-|-5---5-5-5---5-5-5---5-5-5---5---|
D|---------------------------------|---------------------------------|

Chorus 

G|---------------------------------|---------------------------------|
D|---------------------------------|---------------------------------|
A|-10--10--9---9-9-9---5-5-5---10--|-----10--10--9---9---5-5-5---0---|
D|---------------------------------|---------------------------------|

G|---------------------------------|---------------------------------|
D|---------------------------------|---------------------------------|
A|-2---0---2-------0---2---0---0---|-----5-5-5---0---5---5---5-5-0---|
D|---------------------------------|---------------------------------|

G|---------------------------------|---------------------------------|
D|---------------------------------|---------------------------------|
A|-10--10--9---9-9-9---5-5-5---10--|-----10--10--9---9---5-5-5---0---|
D|---------------------------------|---------------------------------|

G|---------------------------------|---------------------------------|
D|---------------------------------|---------------------------------|
A|-2---0---2-------0---2---0---5~~~|~~~~~~~~~~~~~~5\-----------------|
D|---------------------------------|---------------------------------|

Bass Solo

G|16--------------------------16---|16----16-------------------------|
D|---------------------------------|-------------17------17----------|
A|---------------------------------|---------------------------------|
D|---------------------------------|---------------------------------|

G|16-16-----------------------17---|17----17-----16------------------|
D|---------------------------------|---------------------17----------|
A|---------------------------------|---------------------------------|
D|---------------------------------|---------------------------------|

G|16-16-------------------17--19---|17----16-------------------------|
D|---------------------------------|-------------17------17----------|
A|---------------------------------|---------------------------------|
D|---------------------------------|---------------------------------|

G|16-16-----------------------17---|17----19-----17------19----------|
D|---------------------------------|---------------------------------|
A|---------------------------------|---------------------------------|
D|---------------------------------|---------------------------------|

G|---17---16--------16---17---19---|17----16-------------------------|
D|-------------17------------------|-------------17------17----------|
A|---------------------------------|---------------------------------|
D|---------------------------------|---------------------------------|

G|16-16-----------------------17---|17----17-----16------------------|
D|---------------------------------|---------------------17----------|
A|---------------------------------|---------------------------------|
D|---------------------------------|---------------------------------|

G|16-16-------------------17--19---|17------16-----------------------|
D|---------------------------------|-------------17------17----------|
A|---------------------------------|---------------------------------|
D|---------------------------------|---------------------------------|

G|16-16-----------16--161616--1616-|---------------------------------|
D|---------------------------------|---------------------------------|
A|---------------------------------|----5---5---5-5-5---5-5-6---6-6--|
D|---------------------------------|---------------------------------|

Solo

G|---------------------------------|---------------------------------|
D|---------------------------------|---------------------------------|
A|-7---7---7---7-------7---7---7---|-7---7---7---7-------7---7---0---|
D|---------------------------------|---------------------------------|
                                                                       x3
G|---------------------------------|---------------------7-------7---| 
D|---------------------------------|---------------------------------|
A|-2---2---2---2-------2---2---2---|-5---5---5---5---5-------5-------|
D|---------------------------------|---------------------------------|
____________

G|---------------9-9---9-9-9---9-9-|-----------------9---9-9-9-------|
D|---------------------------------|---------------9-----------------|
A|-7---7-7-7---7-------------------|-7---7-7-7---7---------------0---|
D|---------------------------------|---------------------------------|

G|-----------------4---4-4-4-------|-------------7-7-7---------------|
D|---------------------------------|---------------------7-7-7---5-5-|
A|-2---2-2-2---0-0-------------0-0-|-2---2-2-2-----------------------|
D|---------------------------------|---------------------------------|
____________

G|---------------------------------|---------------------------------|
D|---------------------------------|---------------------------------|
A|-10--10--9---9---10--10--10--10--|-10--10--9---9---10--10--9---0---|
D|---------------------------------|---------------------------------|

G|---------------------------------|---------------------------------|
D|---------------------------------|---------------------------------|
A|-2---2---2---2---2---2---2---2---|-5---5---5---5---5---5---5---5---|
D|---------------------------------|---------------------------------|

G|---------------------------------|---------------------------------|
D|---------------------------------|---------------------------------|
A|-10--10--9---9---10--10--10--10--|-10--10--9---9---10--10--9---0---|
D|---------------------------------|---------------------------------|

G|---------------------------------|---------------------------------|
D|---------------------------------|---------------------------------|
A|-2---2---2---2---2---4---4---4---|-5---5---5---5-\-18--18--18--18--|
D|---------------------------------|---------------------------------|

Break

G|---------------------------------|---------------------------------|
D|---------------------------------|---------------------------------|
A|-10--10--9---9---5---5-5-5---5---|-10--10--10--9-9-9---5-5-5---0---|
D|---------------------------------|---------------------------------|

G|---------------------------------|---------------------------------|
D|---------------------------------|---------------------------------|
A|-0---2---2---0---0---2---2---0---|--0---5---5---0---0---5---5--0---|
D|---------------------------------|---------------------------------|

G|---------------------------------|---------------------------------|
D|---------------------------------|---------------------------------|
A|-10--10--9---9---5---5-5-5---5---|-10--10--10--9-9-9---5-5-5---0---|
D|---------------------------------|---------------------------------|

G|---------------------------------|---------------------------------|
D|---------------------------------|---------------------------------|
A|-0---2---2---0---0---2---2---0---|--0---5---5---5-5-5---5-5-5--5-5-|
D|---------------------------------|---------------------------------|
____________

G|---------------------------------|---------------------------------|
D|---------------------------------|---------------------------------|
A|-10--10--9---9---10--10--10--10--|-10--10--9---9---10--10--9---0-0-|
D|---------------------------------|---------------------------------|

G|---------------------------------|---------------------------------|
D|---------------------------------|---------------------------------|
A|-2---2---2---2---2---2---2---2---|-5---5---5---5---5---5---5---5---|
D|---------------------------------|---------------------------------|

G|---------------------------------|---------------------------------|
D|---------------------------------|---------------------------------|
A|-10--10--9---9---10--10--10----10|-10--10--9---9---10--10--9---0-0-|
D|---------------------------------|---------------------------------|

G|---------------------------------|---------------------------------|
D|---------------------------------|---------------------------------|
A|-2---2---2---2---2---4---4---4---|-5---5---5---5---5---5---5---5---|
D|---------------------------------|---------------------------------|

Outro

G|---------------------------------|---------------------------------|
D|---------------------------------|---------------------------------|
A|-7---7---7---7---7---7---7---7---|-7---7---7---7---7---7---7---0---|
D|---------------------------------|---------------------------------|

G|---------------------------------|---------------------------------|
D|---------------------------------|---------------------------------|
A|-2---2---2---2---2---2---2---2---|-5---5---5---5---5---5---5---5---|
D|---------------------------------|---------------------------------|

G|---------------------------------|---------------------------------|
D|---------------------------------|---------------------------------|
A|-7---7---7---7---7---7---7---7---|-7---7---7---7---7---7---7---0---|
D|---------------------------------|---------------------------------|

G|---------------------------------|---------------------------------|
D|---------------------------------|---------------------------------|
A|-2---2---2---2---2---2---2---2---|-5---5---5---5---5---------------|
D|---------------------------------|---------------------0---0---0---|

G|---------------------------------|---------------------------------|
D|---------2---------------2-------|---------4---------------5-------|
A|---------------------------------|---------------------------------|
D|-2---2-------2---2---2-------2---|-4---4-------4---5---5-------5---|

G|---------------------------------|---------------------------------|
D|---------------------------------|---------------------------------|
A|-2---2---2---2---2---2---2---2---|-5---5---5---5---5---------------|
D|---------------------------------|---------------------0---0---0---|

G|---------------------------------|---------------------------------|
D|---------2---------------2-------|---------4---------------5-------|
A|---------------------------------|---------------------------------|
D|-2---2-------2---2---2-------2---|-4---4-------5---5---5-------5---|

G|---------------------------------|---------------------------------|-----|
D|---------------------------------|---------------------------------|-----|
A|-2---2---2---2---2---4---4---4---|-5---5---5---5---5---4---4-------|-----|
D|---------------------------------|------------------------------0--|--5--|
            
Submit corrections

↑ Back to top | Tablatures and chords for acoustic guitar and electric guitar, ukulele, drums are parodies/interpretations of the original songs. You may use it for private study, scholarship, research or language learning purposes only