» » »

Interpol - Same Town, New Story Tabs

Artists:  A B C D E F G H I J K L M N O P Q R S T U V W X Y Z # 

Same Town, New Story Tabs

(ver. 1) Click to play this song!
Interpol
 Rating:
4/5 (4 votes)

 Same Town, New Story  lessons Tabs too difficult? Try these video lessons and learn fast
 
                e|------------------12~--|
B|---8h10--10h11h12------|
G|-9---------------------| X4
D|-----------------------|
A|-----------------------|
E|-----------------------|

(When drums come in. Repeat)
e|----------------------12\\\(0)|
B|-------8h10--10h11h12---------|
G|-5\(9)------------------------| X12
D|------------------------------|
A|------------------------------|
E|------------------------------|

                "So  I  bet    she    stood    by    him..."

e|----------------------17\\(5)|----------------------19\\(7)|---------------------15\\(3)|
B|-------8h10--10h11h12--------|-------8h10--10h11h12--------|-------8h10-10h11h12--------|
G|-5\(9)-----------------------|-5\(9)-----------------------|-5\(9)----------------------| X4
D|-----------------------------|-----------------------------|----------------------------|
A|-----------------------------|-----------------------------|----------------------------|
E|-----------------------------|-----------------------------|----------------------------|

                     
                     "Feels like the whole          world's coming down on         me."
                          
e|----------------------14\\(2)|----------------------17\\(5)|---------------------12\\(0)|
B|-------8h10--10h11h12--------|-------8h10--10h11h12--------|-------8h10-10h11h12--------|
G|-5\(9)-----------------------|-5\(9)-----------------------|-5\(9)----------------------|
D|-----------------------------|-----------------------------|----------------------------|
A|-----------------------------|-----------------------------|----------------------------|
E|-----------------------------|-----------------------------|----------------------------|


Back to the verses.

e|----------------------12\\\(0)|
B|-------8h10--10h11h12---------|
G|-5\(9)------------------------| X16
D|------------------------------|
A|------------------------------|
E|------------------------------|


                "So  I  bet    she    stood    by    him..."

e|----------------------17\\(5)|----------------------19\\(7)|---------------------15\\(3)|
B|-------8h10--10h11h12--------|-------8h10--10h11h12--------|-------8h10-10h11h12--------|
G|-5\(9)-----------------------|-5\(9)-----------------------|-5\(9)----------------------| X3
D|-----------------------------|-----------------------------|----------------------------|
A|-----------------------------|-----------------------------|----------------------------|
E|-----------------------------|-----------------------------|----------------------------|


                "We are still alive... "
  (First bar)                        
e|----------------------14\\(2)|
B|-------8h10--10h11h12--------|
G|-5\(9)-----------------------| (Repeat 3 times from first bar to last bar)
D|-----------------------------|   
A|-----------------------------|
E|-----------------------------|

                                                                (Last bar)
e|----------------------17\\(5)|----------------------19\\(7)|---------------------15\\(3)|
B|-------8h10--10h11h12--------|-------8h10--10h11h12--------|-------8h10-10h11h12--------|
G|-5\(9)-----------------------|-5\(9)-----------------------|-5\(9)----------------------| X3
D|-----------------------------|-----------------------------|----------------------------|
A|-----------------------------|-----------------------------|----------------------------|
E|-----------------------------|-----------------------------|----------------------------|


              "...coming down on me"  

e|----------------------14\\(2)|----------------------|
B|-------8h10--10h11h12--------|-------8h10--10h11h12-|
G|-5\(9)-----------------------|-5\(9)----------------| (Go quickly into the last part)
D|-----------------------------|----------------------|
A|-----------------------------|----------------------|
E|-----------------------------|----------------------|


Ending:

e|20~~~~~~~--------------------|14~~~~~~~~~~~~----------|19~~~~~~~~----------14\|
B|-----------------------------|------------------------|-----------------------|
G|-----------------------------|------------------------|-----------------------|
D|-----------------------------|------------------------|-----------------------|
A|-----------------------------|------------------------|-----------------------|
E|-----------------------------|------------------------|-----------------------|

e|\12------14-----15------19---|20~~~~~~~~~~~~~---------|14~~~~~~~~~~~~~~~~-----|
B|-----------------------------|------------------------|-----------------------|
G|-----------------------------|------------------------|-----------------------|
D|-----------------------------|------------------------|-----------------------|
A|-----------------------------|------------------------|-----------------------|
E|-----------------------------|------------------------|-----------------------|

e|19~~~~~~~-----------------12/|/14~~~~~~~~~~12---14-12-|
B|-----------------------------|------------------------|
G|-----------------------------|------------------------| back to first bar of ending
D|-----------------------------|------------------------|
A|-----------------------------|------------------------|
E|-----------------------------|------------------------|

Repeat until end. End on e|20~~~~~~--|
            
Submit corrections


        Same Town, New Story  lessons Hard to play? Try these video lessons and learn fast Same Town, New Story  lessons
        
↑ Back to top | Tablatures and chords for acoustic guitar and electric guitar, ukulele, drums are parodies/interpretations of the original songs. You may use it for private study, scholarship, research or language learning purposes only