Home » I » Interpol »

Interpol - Rest My Chemistry Bass

Artists:  A B C D E F G H I J K L M N O P Q R S T U V W X Y Z # 

Rest My Chemistry Bass

(ver. 1) Click to play this song!
Interpol
 Rating:
4/5 (4 votes)
                Interpol - Rest My Chemistry
Tuning: standard

Bass comes in around 0:25 with:
G---------------------|-----------------------|    |-------|
D---------------------|-----------------------|    |-------|
A---------------------|-----------------------| x4 |-------|
E--3----3\-7--7--7--0-|-0----0--7--7--7--3--0-|    |--3----|

G------------------------|------------------------|
D------------------------|------------------------|
A------------------------|------------------------| x4
E--3----3-3\-7-7-7-7-7-0-|-0----0-0\-7-7-7/-3-3-0-|

“I haven’ slept for 2 days…”
G---------------------|-----------------------|
D---------------------|-----------------------|
A---------------------|-----------------------| x3
E--3----3\-7--7--7--0-|-0----0--7--7--7--3--0-|

“Tonight I’m gonna rest my chemistry…”
G----------------|-----------------------|
D----------------|-----------------------|
A----------------|-----------------------| x2
E--3----3\-7---7-|-0----0--7--7--7--3--0-|

G------------------------|------------------------|
D------------------------|------------------------|
A------------------------|------------------------| x2
E--3----3-3\-7-7-7-7-7-0-|-0----0-0\-7-7-7/-3-3-0-|

“I live my life in cocaine…”
G---------------------|-----------------------|
D---------------------|-----------------------|
A---------------------|-----------------------| x3
E--3----3\-7--7--7--0-|-0----0--7--7--7--3--0-|

“Tonight I’m gonna rest my chemistry…”
G----------------|-----------------------|    |-------|
D----------------|-----------------------|    |-------|
A----------------|-----------------------| x2 |-------|
E--3----3\-7---7-|-0----0--7--7--7--3--0-|    |--3----|

Rest for a few seconds and then…:
“…So sweet, so surprised…”
G---------------------|-----------------------|
D---------------------|-----------------------|
A---------------------|-----------------------| x2
E--3----3\-7--7--7--0-|-0----0--7--7--7--3--0-|

G---------------------|-----------------------|
D---------------------|-----------------------|
A---------------------|-----------------------| x3
E--3----3\-7--7--7--0-|-0----0--7--7--7--3--0-|

“Tonight I’m gonna rest my chemistry…”
G----------------|-----------------------|    |-------|
D----------------|-----------------------|    |-------|
A----------------|-----------------------| x2 |-------|
E--3----3\-7---7-|-0----0--7--7--7--3--0-|    |--3----|

Rest again, and after he says “Like a daisy in my lazy eye..”
Just keep playing this till the song is finished
G------------------------|------------------------|
D------------------------|------------------------|
A------------------------|------------------------|
E--3----3-3\-7-7-7-7-7-0-|-0----0-0\-7-7-7/-3-3-0-|
            
Submit corrections

↑ Back to top | Tablatures and chords for acoustic guitar and electric guitar, ukulele, drums are parodies/interpretations of the original songs. You may use it for private study, scholarship, research or language learning purposes only