Home » I » Interpol »

Interpol - Public Pervert Bass

Artists:  A B C D E F G H I J K L M N O P Q R S T U V W X Y Z # 

Public Pervert Bass

(ver. 1) Click to play this song!
Interpol
 Rating:
4/5 (4 votes)
                -------------------------------------------------------------------------------
			     PUBLIC PERVERT - Interpol
-------------------------------------------------------------------------------


Tuning: DADG (Drop D)
  Verse A
G|------------------------------7-7--------------------------------------------------|
D|-----7-7-10-10-7-7--------7-7-----7-7-------------------7-8-9----------------------|
A|-8-8----------------8--5-5-------------5-------------------------------------------|
D|-----------------------------------------------------------------------------------|

G|-------------------------------7-7-------------------------------------------------|
D|-----7-7-10-10-10-7--------7-7-----7-7---------------------------------------------|
A|-8-8----------------8--5-5-------------5-------------------------------------------|
D|-----------------------------------------------------------------------------------|
  Verse B
G|------------------------------7-7--------------------------------------------------|
D|-----7-7-10-10-7-7--------7-7-----7-7-------------------7-8-9----------------------|
A|-8-8----------------8--5-5-------------5-------------------------------------------|
D|-----------------------------------------------------------------------------------|

G|-------------------------------7-7-9-9-7-------------------------------------------|
D|-----7-7-10-10-10-7--------7-7-----------------------------------------------------|
A|-8-8----------------8--5-5---------------------------------------------------------|
D|-----------------------------------------------------------------------------------|
  Break A
G|------------------19------------------17-------------------------------------------|
D|--------------19------------------14-----------------------------------------------|
A|-5---5-5---------------0---0-0-----------------------------------------------------|
D|-----------------------------------------------------------------------------------|
  Chorus A
G|-----------------------------------------------------------------------------------|
D|-----------------------------------------------------------------------------------|
A|-----------------------------------------------------------------------------------|
D|-8-8-8-8-8-8-8-8-7-7-7-10-10-10-10-10-5-5-5-8-8-8-8-8-12-12-12-12-12-12-12-12------|

G|-----------------------------------------------------------------------------------|
D|-----------------------------------------------------------------------------------|
A|-----------------------------------------------------------------------------------|
D|-8-8-8-8-8-8-8-8-7-7-7-10-10-10-10-10-5-5-5-8-8-8-8-8-0-0-0-0-0-0-0-0-----=--------|

G|-----------------------------------------------------------------------------------|
D|----------------------------------------------------------------------------121212-|
A|---------------------------------------------------------------------121212--------|
D|-8-8-8-8-8-8-8-8-7-7-7-10-10-10-10-10-5-5-5-8-8-8-8-8-12-12-12-12-12---------------|
  Break B
G|-----------------------------------------------------------------------------------|
D|------------------------------------------------7---5---3---2-/-10-----------------|
A|-5---3---5---7-/-17----------------------------------------------------------------|
D|-----------------------------------------------------------------------------------|
  Chorus B
G|-----------------------------------------------------------------------------------|
D|-----------------------------------------------------------------------------------|
A|-----------------------------------------------------------------------------------|
D|-8-8-8-8-8-8-8-8-7-7-7-10-10-10-10-10-5-5-5-8-8-8-8-8-12-12-12-12-12-12-12-12------|

G|-----------------------------------------------------------------------------------|
D|-----------------------------------------------------------------------------------|
A|-----------------------------------------------------------------------------------|
D|-8-8-8-8-8-8-8-8-7-7-7-10-10-10-10-10-5-5-5-8-8-8-8-8-0-0-0-0-0-0-0-0--------------|X2

G|-----------------------------------------------------------------------------------|
D|-----------------------------------------------------------------------------------|
A|-----------------------------------------------------------------------------------|
D|-8-8-8-8-8-8-8-8-7-7-7-10-10-10-10-10-5-5-5-8-8-8-8-8-12-12-12-12-12-12-12-12------|
  Break C
G|-----------------------------------------------------------------------------------|
D|-----------------------------------------------------------------------------------|
A|-----------------------------------------------------------------------------------|
D|-8-8-8-8-8-8-8-8-7-7-7-7-7-7-7-7-10-10-10-10-10-10-10-10-5-5-5-5-5-7-7-7-----------|

G|-----------------------------------------------------------------------------------|
D|---------------------------------------------------------------------7-------------|
A|-----------------------------------------------------------------------------------|
D|-8-8-8-8-8-8-8-8-7-7-7-7-7-7-7-7-10-10-10-10-10-10-10-10-5-5-5-5-5-7---7-----------|

G|-----------------------------------------------------------------------------------|
D|-----------------------------------------------------------------------------------|
A|-----------------------------------------------------------------------------------|
D|-8-8-8-8-8-8-8-8-7-7-7-10-10-10-10-10-5-5-5-8-8-8-8-8-12-12-12-1212-1212-12-1212---|

G|-----------------------------------------------------------------------------------|
D|---------------------------------------------------------------1212-1212-12-1212---|
A|-----------------------------------------------------------------------------------|
D|-8-8-8-8-8-8-8-8-7-7-7-10-10-10-10-10-5-5-5-8-8-8-8-8-12-12-12---------------------|
  Break D
G|-----------------------------------------------------------------------------------|
D|-----------------------------------------------------------------------------------|
A|-----------------------------------------------------------------------------------|
D|-8--8--88--888-77--777--1010-1010-0-5-0-5-0-8-0-8-0-12-0-12-0-12-0-12--------------|

G|------------------------------------------------------------------------------------|
D|-------------------------------------------------------------12-12-1212-1212-12-1212|
A|------------------------------------------------------------------------------------|
D|-8--8--88--888-77--777--1010-1010-0-5-0-5-0-8-0-8-0-12-0-12-0-----------------------|X2
  Outro
G|-----------------------------------------------------------------------------------|
D|-----------------------------------------------------------------------------------|
A|-----------------------------------------------------------------------------------|
D|-8-8-8-8-8-8-8-8-7-7-7-10-10-10-10-10-5-5-5-8-8-8-8-8-12-12-12-12-12-12-12-12------|

G|-----------------------------------------------------------------------------------|
D|-----------------------------------------------------------------------------------|
A|-----------------------------------------------------------------------------------|
D|-8-8-8-8-8-8-8-8-7-7-7-10-10-10-10-10-5-5-5-8-8-8-8-8-0-0-0-0-0-10-10-10-12~-------|

Verse A
Verse B
Break A
Chorus A
Verse B
Break B
Chorus B
Break C
Break D
Outro

| /  slide up
| \  slide down
| h  hammer-on
| p  pull-off
| ~  vibrato
| +  harmonic
| x  Mute note
===============================================================================
            
Submit corrections

↑ Back to top | Tablatures and chords for acoustic guitar and electric guitar, ukulele, drums are parodies/interpretations of the original songs. You may use it for private study, scholarship, research or language learning purposes only