Home » I » Interpol »

Interpol - Precipitate Bass

Artists:  A B C D E F G H I J K L M N O P Q R S T U V W X Y Z # 

Precipitate Bass

(ver. 1) Click to play this song!
Interpol
 Rating:
4/5 (4 votes)
                Band: Interpol

[00:13]

G|-------------------------------------------|
D|-------------------------------3-----------|     2x
A|--3-232353-7-777777-0-000000------3357-----|
D|-----------------------------33-3----------|

[00:31]

G|-------------------------------------------|
D|-------------------------------------------|     4x
A|--3-232353-7-777777-0-000000-77777-5-5-----|
D|-------------------------------------------|

[01:04]

G|-------------------------------------------|
D|-------------------------------------------|
A|--33-333-3-333-333-22-2-222-777-777--------|
D|-------------------------------------------|

G|-------------------------------------------|
D|-------------------------------------------|
A|--777-333-3-333-322222222/7--------555-----|
D|-------------------------------------------|

G|-------------------------------------------|
D|-------------------------------------------|
A|--5777-7333-2222-2222-777-5-555-55-7777----|
D|-------------------------------------------|

G|-------------------------------------------|
D|-------------------------------------------|
A|--5777-7333-2222-2222-777-5-555-7----------|
D|-------------------------------------------|

[01:38]

G|-------------------------------------------|
D|-------------------------------------------|     4x
A|--3-232353-7-777777-0-000077-77777-5-5-----|
D|-------------------------------------------|

[02:11]

G|-------------------------------------------|
D|-------------------------------------------|
A|--33-333-3-333-333-22-2-222-777-777--------|
D|-------------------------------------------|

G|-------------------------------------------|
D|-------------------------------------------|
A|--777-333-3-333-322222222/7--------555-----|
D|-------------------------------------------|

G|------------------------------------------------|
D|:-----------------------------------------------|    3x
A|:-7777-7333-2222-2222-777-5-555-55-7777---------|
D|------------------------------------------------|

G|----------------------------------------(5)-|
D|----------------------------------------(5)-|
A|--7777-7333-2222-2222-777-5-555-7--------3--|
D|--------------------------------------------|

[03:16]

G|--------|--------16-----------------1616----|
D|--------|:----17----17---------1717------17-|
A|-121212-|:-15----------15/1414--------------|
D|--------|-----------------------------------|

G|----------14-----------------1414---------------|
D|-------15----15-15------1515------15------------|  4x
A|-14/12-------------1212--------------12/--------|
D|------------------------------------------------|

[3:49]

The bass actually rests here, but you can play
this if you get bored easily.

G|-------------------------------------------|
D|-------------------------------------------|    2x
A|-15(8x)-14(8x) 12(16x)---------------------|
D|-------------------------------------------|

[04:04]

G|----------------------------------------------|
D|-15/17-17-17-17/15-15-15-14/15-15-15-15-15\14-|
A|----------------------------------------------|
D|----------------------------------------------|

G|----------------------------------------------|
D|-14-14/151515-15/17-17-17-17-17-17/15-15-15---|
A|----------------------------------------------|
D|----------------------------------------------|

G|------------17------------------17------------|
D|-15-14/1515----15-15-14/1515-15----15---------|
A|--------------------------------------15------|
D|-----------------------------------------12---|

[04:20]

G|---------------------------------------------|
D|---------------------------------------------|   3x
A|-8888-8888-7777-7777-0000-0333-3-----333/----|
D|--------------------------------333-3--------|

G|---------------------------------------------|
D|---------------------------------------------|
A|-8888-8888-7777-7777-00012-00012-00012-00012-|
D|---------------------------------------------|

[04:52]

G|-------------------------------------------|
D|-------------------------------------------|    4x
A|-5555-5555-7777-7777-7888-8000-0000-8877---|
D|-------------------------------------------|




That's why I made a mess.
            
Submit corrections

↑ Back to top | Tablatures and chords for acoustic guitar and electric guitar, ukulele, drums are parodies/interpretations of the original songs. You may use it for private study, scholarship, research or language learning purposes only