» » »

Interpol - Obstacle Two Tabs

Artists:  A B C D E F G H I J K L M N O P Q R S T U V W X Y Z # 

Obstacle Two Tabs

(ver. 1) Click to play this song!
Interpol
 Rating:
4/5 (4 votes)

 Obstacle Two lessons Tabs too difficult? Try these video lessons and learn fast
 
                Here's my correction to the Obstacle 2 tab found at

the 3rd chord is different,
and the top two strings ring out

-----------------------------------------------------
-----------------------------------------------------
---4-4-4-4-4-4-4-4-4-4-4-4-5-4-5-4-------------------
---5-5-5-5-5-5-5-5-0-0-0-0-0-0-0-0-------------------
---7-7-7-7-0-0-0-0-0-0-0-0-0-0-0-0-------------------
-----------------------------------------------------

and listen for this variation

-----------------------------------------------------
-----------------------------------------------------
---4-4-4-4-4-4-4-4-4-4-4-4-5-7-5-4-------------------
---5-5-5-5-5-5-5-5-0-0-0-0-0-0-0-0-------------------
---7-7-7-7-0-0-0-0-0-0-0-0-0-0-0-0-------------------
-----------------------------------------------------

you might try this too, it uses pretty much the same notes, 
and is easier to play:

---0-0-0-0-0-0-0-0-0-0-0-0-0-0-0-0-------------------
---0-0-0-0-0-0-0-0-x-x-x-x-x-x-x-x-------------------
---0-0-0-0-x-x-x-x-4-4-4-4-5-4-5-4-------------------
---x-x-x-x-7-7-7-7-0-0-0-0-0-0-0-0-------------------
---7-7-7-7-0-0-0-0-0-0-0-0-0-0-0-0-------------------
-----------------------------------------------------
            
Submit corrections


        Obstacle Two lessons Hard to play? Try these video lessons and learn fast Obstacle Two lessons
        
↑ Back to top | Tablatures and chords for acoustic guitar and electric guitar, ukulele, drums are parodies/interpretations of the original songs. You may use it for private study, scholarship, research or language learning purposes only