» » »

Interpol - Number 10 Tabs

Artists:  A B C D E F G H I J K L M N O P Q R S T U V W X Y Z # 

Number 10 Tabs

(ver. 1) Click to play this song!
Interpol
 Rating:
4.4/5 (5 votes)

 Number 10 lessons Tabs too difficult? Try these video lessons and learn fast
 
                [Intro]

  e|-----------------|-----------------|-----------------|-----------------|
  B|-6---6---6---6---|-6---6---6---6---|-7---7---7---7---|-6---6---6---6---|
  G|---8---8---8---8-|---6---6---6---6-|---6---6---6---6-|---6---6---6---6-|
  D|-----------------|-----------------|-----------------|-----------------|
  A|-----------------|-----------------|-----------------|-----------------|x2
  E|-----------------|-----------------|-----------------|-----------------|

	Then, you can either play this:
  e|-------------------------|-------------------------|-------------------------|-------------------------|
  B|-6-----6-----6-----6-----|-6-----6-----6-----6-----|-6h7h9-6h7h9-6h7h9-6h7h6-|-6h7p6-6h7p6-6h7p6-6h7p6-|
  G|--h8p6--h8p6--h8p6--h8p6-|--h8p6--h8p6--h8p6--h8p6-|-------------------------|-------------------------|
  D|-------------------------|-------------------------|-------------------------|-------------------------|
  A|-------------------------|-------------------------|-------------------------|-------------------------|x4
  E|-------------------------|-------------------------|-------------------------|-------------------------|

	Or instead, a second guitar plays:
  e|-------------------------|-------------------------|-------------------------|-------------------------|
  B|-------------------------|-------------------------|-6h7h9-6h7h9-6h7h9-6h7h6-|-------------------------|
  G|-6h8p6-6h8p6-6h8p6-6h8p6-|-6h8p6-6h8p6-6h8p6-6h8p6-|---------------------------6h8p6-6h8p6-6h8p6-6h8p6-|
  D|-------------------------|-------------------------|-------------------------|-------------------------|
  A|-------------------------|-------------------------|-------------------------|-------------------------|x4
  E|-------------------------|-------------------------|-------------------------|-------------------------|


[Verse]

  e|-------------------------|-------------------------|-------------------------|-------------------------|
  B|-------------------------|-------------------------|-------------------------|-------------------------|
  G|-3-3-3---5---5-5---5-5-5-|-7-7-7---3---3-3---3-3-3-|-7-7-7---5---5-5---5-5-5-|-7-7-7-------------------|
  D|-x-x-x---x---x-x---x-x-x-|-x-x-x---x---x-x---x-x-x-|-x-x-x---x---x-x---x-x-x-|-x-x-x---5---5-5---5-5-5-|
  A|-1-1-1---3---3-3---3-3-3-|-5-5-5---1---1-1---1-1-1-|-5-5-5---3---3-3---3-3-3-|-5-5-5---x---x-x---x-x-x-|
  E|-------------------------|-------------------------|-------------------------|---------3---3-3---3-3-3-|

	Or instead, a second guitar plays:
  e|-------------------------|-------------------------|-------------------------|-------------------------|
  B|-------------------------|-------------------------|-------------------------|-------------------------|
  G|-3~------5~--------------|-10~-----7~--------------|-8~------5~--------------|-7~------3~--------------|
  D|-------------------------|-------------------------|-------------------------|-------------------------|
  A|-------------------------|-------------------------|-------------------------|-------------------------|
  E|-------------------------|-------------------------|-------------------------|-------------------------|


[Chorus]

  e|-------------------------|-------------------------|-------------------------|-------------------------|
  B|-------------------------|-------------------------|-------------------------|-------------------------|
  G|-------------10-10-------|-------------10-10-------|-10---10-------10--------|-------------------------|
  D|-8--8--11-11-------11-11-|-------11-11-------11-11-|-11---11-------11--------|-11---11-------11--------|
  A|-------------------------|-------------------------|-------------------------|-11---11-------11--------|x2
  E|-------------------------|-------------------------|-------------------------|-------------------------|

  e|-------------------------|-------------------------|-------------------------|-------------------------|
  B|-------------------------|-------------------------|-------------------------|-------------------------|
  G|----------8--10-8--------|-------------10-10-------|-10---10-------10--------|-------------------------|
  D|-8--8--11----------11-1--|-------11-11-------11-11-|-11---11-------11--------|-11---11-------11--------|
  A|-------------------------|-11-11-------------------|-------------------------|-11---11-------11--------|
  E|-------------------------|-------------------------|-------------------------|-------------------------|

  e|-------------------------|-------------------------|-------------------------|-------------------------|
  B|-------------------------|-------------------------|-------------------------|-------------------------|
  G|-------------10-10-------|-------------10-10-------|-10---10-------10--------|-------------------------|
  D|-8--8--11-11-------11-11-|-------11-11-------11-11-|-11---11-------11--------|-11---11-------11--------|
  A|-------------------------|-------------------------|-------------------------|-11---11-------11--------|
  E|-------------------------|-------------------------|-------------------------|-------------------------|


[Outro]

  e|-------------------------|-------------------------|-------------------------|-------------------------|
  B|-------------------------|-------------------------|-------------------------|-------------------------|
  G|-3-3-3---5---5-5---5-5-5-|-7-7-7---3---3-3---3-3-3-|-7-7-7---5---5-5---5-5-5-|-7-7-7-------------------|
  D|-x-x-x---x---x-x---x-x-x-|-x-x-x---x---x-x---x-x-x-|-x-x-x---x---x-x---x-x-x-|-x-x-x---5---5-5---5-5-5-|
  A|-1-1-1---3---3-3---3-3-3-|-5-5-5---1---1-1---1-1-1-|-5-5-5---3---3-3---3-3-3-|-5-5-5---x---x-x---x-x-x-|
  E|-------------------------|-------------------------|-------------------------|---------3---3-3---3-3-3-|

	Or instead, a second guitar plays:
  e|-------------------------|-------------------------|-------------------------|-------------------------|
  B|-------------------------|-------------------------|-------------------------|-------------------------|
  G|-3~------5~--------------|-10~-----7~--------------|-8~------5~--------------|-7~------3~--------------|
  D|-------------------------|-------------------------|-------------------------|-------------------------|
  A|-------------------------|-------------------------|-------------------------|-------------------------|
  E|-------------------------|-------------------------|-------------------------|-------------------------|

            
Submit corrections


        Number 10 lessons Hard to play? Try these video lessons and learn fast Number 10 lessons
        
↑ Back to top | Tablatures and chords for acoustic guitar and electric guitar, ukulele, drums are parodies/interpretations of the original songs. You may use it for private study, scholarship, research or language learning purposes only