Home » I » Interpol »

Interpol - No I In Threesome Bass

Artists:  A B C D E F G H I J K L M N O P Q R S T U V W X Y Z # 

No I In Threesome Bass

(ver. 1) Click to play this song!
Interpol
 Rating:
4/5 (4 votes)
                No I In Threesome

Intro/Verse
G |------------------|
D |------------------|
A |-8888888888888555-|
D |------------------|

Break 1 (mid-verse)
G |------------------|
D |------------------|
A |-5777777770000557-|
D |------------------|

Pre-Chorus (mid-verse)
G |-----------------------|
D |-----------------------|
A |-5777777777777777x-002-|
D |-----------------------|

Chorus
G|-------------------------------------------------------------------------------|
D|----------------------------------------------------7--------------------------|
A|-33x-233x-23323x-----------------------------------------------------------222-|
D|-----------------00222x-2x-2x-223x-3355577x-5x-7x-57-7575x-5x-3-3-3-33333x-----|

G|-------------------------------------------------------------------------|
D|------------33322200-------------33322200-------------7------------------|
A|-33x-2x-3x-2--------2--------------------2--------------------0x-00-8888-|
D|---------------------022x-0x-2x-0---------77x-5x-7x-57-7575x-5-----------|

Verse
Break 1
Verse
Pre-Chorus
Chorus

Pre Solo (From the last 333 of Chorus)
G |------------------|
D |------------------|
A |-8888888888888777-|
D |------------------|

Paul Voice Solo
G|--------------------------------------------------|
D|--------------------------------------------------|
A|-333333333333355577777777777777785555555555555555-|
D|--------------------------------------------------|

Outro
G|------------------------------------------------------------------------------|
D|------------------------------------------------------------------------------|
A|-33x-233x-233x-233x-----------------------------------------------------------|
D|-------------------022x-022x-023x-3355577x-577x-5x7x-577-233x-233x-233x-22333-|

G|---------------------------------------------------------------------------|
D|---------------------------------------------------------------------------|
A|-33x-233x-233x-233x--------------------------------------57888888888888755-|
D|--------------------022x-022x-023x-3355577x-577x-577x-577------------------|

G|--------------------------------------------------|
D|-------------------------------557777777777777777-|
A|-3333333333333335557777777777777------------------|
D|--------------------------------------------------|

G|----------------------------------|
D|----------------------------------|
A|-88888888888885558*\--------------|
D|----------------------------------|

x = stop, / = slide up, * = let ring, \ = slide down
            
Submit corrections

↑ Back to top | Tablatures and chords for acoustic guitar and electric guitar, ukulele, drums are parodies/interpretations of the original songs. You may use it for private study, scholarship, research or language learning purposes only