Home » I » Interpol »

Interpol - Direction Bass

Artists:  A B C D E F G H I J K L M N O P Q R S T U V W X Y Z # 

Direction Bass

(ver. 1) Click to play this song!
Interpol
 Rating:
4/5 (6 votes)
                -----------------------------------------------------------------------------
-----------------------------------------------------------------------------


Tuning: Standard

Main riff (0:28)
G|----------------------------------|
D|-10-11-10--9-9-8-8-5-5-7-7--7-7---| x7
A|--------------------------------0-|
E|----------------------------------|

G|----------------------------------|
D|-10-11-10--9-9-8-8-5-5-7-7--7-7-7-|
A|----------------------------------|
E|----------------------------------|

Interlude (1:07)
G|----------------------------------------------------------------|
D|----------------------------------------------------------------|
A|0r----------------------------------------------0r--------------|
E|--------------------------------3r------------------------------|

G|----------------------------------------------------------------|
D|----------------------------------------------------------------|
A|--------------------------------0r------------------------------|
E|3r--------------------------------------------------------------|

Main riff (1:33)

Interlude (2:10)  I think he plays the notes continually here but it is quite quiet so 
you're lazy or prefer it, you could just let these notes ring like in the first interlude.
G|----------------------------------------------------------------|
D|----------------------------------------------------------------|
A|0-0-0-0-0-0-0-0-0-0-0-0-0-0-0-0-----------------0-0-0-0-0-0-0-0-|
E|--------------------------------3-3-3-3-3-3-3-3-----------------|

G|----------------------------------------------------------------|
D|----------------------------------------------------------------|
A|--------------------------------0-0-0-0-0-0-0-0-0-0-0-0-0-0-0-0-|
E|3-3-3-3-3-3-3-3-3-3-3-3-3-3-3-3---------------------------------|

G|----------------------------------------------------------------|
D|0-0-0-0-0-0-0-0-0-0-0-0-0-0-0-0---------------------------------| x3
A|--------------------------------3-3-3-3-3-3-3-3-3-3-3-3-3-3-3-3-|
E|----------------------------------------------------------------|

G|----------------------------------------------------------------|
D|----------------------------------------------------------------|
A|-0r-------------------------------------------------------------|
E|----------------------------------------------------------------|

And that's the end.

| r  let ring
| /  slide up
| \  slide down
| h  hammer-on
| p  pull-off
| ~  vibrato
| +  harmonic
| x  Mute note
=============================================================================
            
Submit corrections

↑ Back to top | Tablatures and chords for acoustic guitar and electric guitar, ukulele, drums are parodies/interpretations of the original songs. You may use it for private study, scholarship, research or language learning purposes only