Home » I » Interpol »

Interpol - All The Rage Back Home Bass

Artists:  A B C D E F G H I J K L M N O P Q R S T U V W X Y Z # 

All The Rage Back Home Bass

(ver. 1) Click to play this song!
Interpol
 Rating:
3.5/5 (25 votes)
                Verse 1

G|------------------------------------------------------------0----|
D|-----------------------------------------------------------------|
A|-----------------5-5-5-5-5-5-5-5-2-2-2-2-2-2-2-2-2-2-2-2-2-2-2-2-|
D|-3-3-3-3-3-3-3-3-------------------------------------------------|

G|------------0-----------------------------------0----0-0------0--|
D|-----------------------------------------------------------------|
A|-----------------5-5-5-5-2-2-2-2-5-5-5-5-2-2-2-2-2-2-2-2-2-2-2-2-|
D|-3-3-3-3-3-3-3-3-------------------------------------------------|

G|------0-----0-0-----------0---0-0------0----0-0-----0----0-0---0-|
D|-----------------------------------------------------------------|
A|-----------------5-5-5-5-5-5-5-5-2-2-2-2-2-2-2-2-2-2-2-2-2-2-2-2-|
D|-3-3-3-3-3-3-3-3-------------------------------------------------|

Chorus

G|------0-----0-0-------------0------------------0----0-0--------0-|
D|-----------------------------------------------------------------|
A|-----------------2-2-2-2-2-2-2-2-0-0-0-0-0-0-0-0-0-0-0-0-0-0-0-0-|
D|-3-3-3-3-3-3-3-3-------------------------------------------------|

G|------0-----0-0-------------0------------------0----0-0----------|
D|-----------------------------------------------------------------|
A|-----------------2-2-2-2-2-2-2-2-0-0-0-0-0-0-0-0-0-0-0-3-4-5-2-2-|
D|-3-3-3-3-3-3-3-3-------------------------------------------------|

G|------0-----0-0-------------0------------------0----0-0--------0-|
D|-----------------------------------------------------------------|
A|-----------------2-2-2-2-2-2-2-2-0-0-0-0-0-0-0-0-0-0-0-0-0-0-0-0-|
D|-3-3-3-3-3-3-3-3-------------------------------------------------|

Verse 2

G|------------------------------------------------------------0----|
D|-----------------------------------------------------------------|
A|-----------------5-5-5-5-5-5-5-5-2-2-2-2-2-2-2-2-2-2-2-2-2-2-2-2-|
D|-3-3-3-3-3-3-3-3-------------------------------------------------|

G|------------0-----------------------------------0-------------0--|
D|-----------------------------------------------------------------|
A|-----------------5-5-5-5-2-2-2-2-5-5-5-5-2-2-2-2-2-2-2-2-2-2-2-2-|
D|-3-3-3-3-3-3-3-3-------------------------------------------------|

G|------0-----0-0-----------0---0-0------0----0-0-----0----0-0---0-|
D|-----------------------------------------------------------------|
A|-----------------5-5-5-5-5-5-5-5-2-2-2-2-2-2-2-2-2-2-2-2-2-2-2-2-|
D|-3-3-3-3-3-3-3-3-------------------------------------------------|

Chorus

G|------0-----0-0-------------0------------------0----0-0--------0-|
D|-----------------------------------------------------------------|
A|-----------------2-2-2-2-2-2-2-2-0-0-0-0-0-0-0-0-0-0-0-0-0-0-0-0-|
D|-3-3-3-3-3-3-3-3-------------------------------------------------|

G|------0-----0-0-------------0------------------0----0-0----------|
D|-----------------------------------------------------------------|
A|-----------------2-2-2-2-2-2-2-2-0-0-0-0-0-0-0-0-0-0-0-3-4-5-2-2-|
D|-3-3-3-3-3-3-3-3-------------------------------------------------|

G|------0-----0-0-------------0------------------0----0-0--------0-|
D|-----------------------------------------------------------------|
A|-----------------2-2-2-2-2-2-2-2-0-0-0-0-0-0-0-0-0-0-0-0-0-0-0-0-|
D|-3-3-3-3-3-3-3-3-------------------------------------------------|

Post-Chorus

G|--------------0-0-----------0-0---------------------------0-0----|
D|-----------------------------------------------------------------|
A|-----------------2-2-2-2-2-2-2-2-0-0-0-0-0-0-0-0-0-0-0-0-0-0-0-0-|
D|-3-3-3-3-3-3-3-3-------------------------------------------------|

G|----------0---0-0-----------0-0------------------0--0-0---------0|
D|-----------------------------------------------------------------|
A|-----------------2-2-2-2-2-2-2-2-0-0-0-0-0-0-0-0-0-0-0-3-4-5-2-2-|
D|-3-3-3-3-3-3-3-3-------------------------------------------------|

G|----------0---0-0-----------0-0--------------------0--0-0-------0|
D|-----------------------------------------------------------------|
A|-----------------2-2-2-2-2-2-2-2-0-0-0-0-0-0-0-0-0-0-0-0-0-0-0-0-|
D|-3-3-3-3-3-3-3-3-------------------------------------------------|

G|----------0---0-0-----------0-0------------------0--0-0---------0|
D|-----------------------------------------------------------------|
A|-----------------2-2-2-2-2-2-2-2-0-0-0-0-0-0-0-0-0-0-0-3-4-5-2-2-|
D|-3-3-3-3-3-3-3-3-------------------------------------------------|

G|----------0---0-0-----------0-0------------------0--0-0---------0|
D|-----------------------------------------------------------------|
A|-----------------2-2-2-2-2-2-2-2-0-0-0-0-0-0-0-0-0-0-0-3-4-5-2-2-|
D|-3-3-3-3-3-3-3-3-------------------------------------------------|

G|----------0---0-0-----------0-0---------0---0---0---0---0---0---0|
D|-----------------------------------------------------------------|
A|-----------------2-2-2-2-2-2-2-2-0-0-0-0-0-0-0-0-0-0-0-3-4-5-2-2-|
D|-3-3-3-3-3-3-3-3-------------------------------------------------|

G|--------------0-0-----------0-0-----------0------0--0-0---------0|
D|-----------------------------------------------------------------|
A|-----------------2-2-2-2-2-2-2-2-0-0-0-0-0-0-0-0-0-0-0-3-4-5-2-2-|
D|-3-3-3-3-3-3-3-3-------------------------------------------------|
            
Submit corrections

↑ Back to top | Tablatures and chords for acoustic guitar and electric guitar, ukulele, drums are parodies/interpretations of the original songs. You may use it for private study, scholarship, research or language learning purposes only