» » »

Institute - Heat Of Your Love Tabs

Artists:  A B C D E F G H I J K L M N O P Q R S T U V W X Y Z # 

Heat Of Your Love Tabs

(ver. 1) Click to play this song!
Institute
 Rating:
4/5 (5 votes)

 Heat Of Your Love lessons Tabs too difficult? Try these video lessons and learn fast
 
                Institute - The Heat of your love

I've tabbed the song because the other tab was weird... 1/2 step down isn't a drop d 
and the you should use dadgbe... Whatever.

Standart Tuning: EADGBe

Intro part A:

e--------------------------------------|
B--------------------------------------|
G---------------------------6------4---|
D-----4---6------4--6----------------4-|   2x
A--------------------------------------|
E-4-4---4----4-4--4------4-----4-4-----|




Then Intro Part B:

e-----------------------------------|
B-----------------------------------|
G-----------13-13-13-13-13-13-13-13-|
D-4-4-4-6---x--x--x--x--x--x--x--x--|   2x
A-4-4-4-6---11-11-11-11-11-11-11-11-|
E-2-2-2-4---------------------------|




Verse: Palm Mute

e------------------------------|
B------------------------------|
G------------------------------|
D-4-4-4-6----4-4-4-6---7-7-9-9-|  6x
A-4-4-4-6----4-4-4-6---7-7-9-9-|
E-2-2-2-4----2-2-2-4---5-5-7-7-|



Right for The chorus he played:

e----------------------|
B----------------------|
G----------------------|
D-4-4-4-6----4-4-4-6---|
A-4-4-4-6----4-4-4-6---|
E-2-2-2-4----2-2-2-4---|


A second Guitar play after a while:

e-------|
B-------|
G-13-13-| I couldn't figure out the exact count of hitting these notes
D-x--x--|
A-11-11-|
E-------|


Chorus:

e---------------------------------------------------------|
B---------------------------------------------------------|
G---------------------------------------------------------|
D-6-6-6-6-6-6-6-6-6-6-6-6-9-9-9-9-2-2-2-2-2-2-2-2-2-2-2-2-|
A-6-6-6-6-6-6-6-6-6-6-6-6-9-9-9-9-2-2-2-2-2-2-2-2-2-2-2-2-|
E-4-4-4-4-4-4-4-4-4-4-4-4-7-7-7-7-0-0-0-0-0-0-0-0-0-0-0-0-|


I couldn't figure out the second guitar.


Back to The Intro Part A.

Then Back to Verse

Then Chorus

On the solo he just play:

e---------------------------------|
B---------------------------------|
G-4-4-4-4-4-4-4-4-4-4-4-4-6-6-6-6-|
D-4-4-4-4-4-4-4-4-4-4-4-4-6-6-6-6-|
A-2-2-2-2-2-2-2-2-2-2-2-2-4-4-4-4-|
E---------------------------------|


The Rest is already standing here.
For the solo you can watch the other tab I think it's quite good.

thank you for using my tab
            
Submit corrections


        Heat Of Your Love lessons Hard to play? Try these video lessons and learn fast Heat Of Your Love lessons
        
↑ Back to top | Tablatures and chords for acoustic guitar and electric guitar, ukulele, drums are parodies/interpretations of the original songs. You may use it for private study, scholarship, research or language learning purposes only