Home » I » Insite »

Insite - Siempre Me Dejas Tabs

Artists:  A B C D E F G H I J K L M N O P Q R S T U V W X Y Z # 

Siempre Me Dejas Tabs

(ver. 3) Click to play this song!
Insite
Afinacion standart (en Mi)



Intro (acustico):

  [1a guitarra]
e|-8----------10/7-----------------------|
B|------------------------8-----6-----5--|
G|---0------0------0--------0-----0------|
D|-----0-------------0--------0-----0----|
A|---------------------------------------|
E|-8-----8-----8/5-----5--------------x4-|

  [2a guitarra (entra en la tercera vuelta de la primera guitarra)]
e|-----------------------|
B|-10-----8----6---5-----|
G|----0------0---0----0--|
D|-----------------------|
A|-----------------------|
E|--8---8-8----5---5--x2-|


Riff de entrada (Distorcion):

  [1a guitarra]
   C                        Am                          F
e|----------------------------------------------------|-----|
B|----------------------------------------------------|-----|
G|-5-5-5-5-5-5-5-5-5-5-5-5----------------------------|-----|
D|-5-5-5-5-5-5-5-5-5-5-5-5--7-7-7-7-7-7-7-7-7-7-7-7---|-3~--|
A|-3-3-3-3-3-3-3-3-3-3-3-3--7-7-7-7-7-7-7-7-7-7-7-7---|-3~--|
E|--------------------------5-5-5-5-5-5-5-5-5-5-5-5-x2|-1~--|

  [2a guitarra]
   C                                    Am                                     F
e|---------------------------------------------------------------------------|-----|
B|-13-13-13-13-13-13-13-13-15-15-15-15--12-12-12-12-12-----------------------|-----|
G|--x--x--x--x--x--x--x--x--x--x--x--x---x--x--x--x--x-12-12-12-10-10-10-9---|-5~--|
D|-10-10-10-10-10-10-10-10-10-10-10-10---9--9--9--9--9--x--x--x--x--x--x-x---|-x---|
A|-----------------------------------------------------10-10-10--8--8--8-7---|-3~--|
E|-------------------------------------------------------------------------x2|-----|


Verso (sin distorcion)
  [2a guitarra]
   F           Am    G
e|-1-----1-----0-----3----|
B|---1-----1-----1-----3--|
G|------------------------|
D|------------------------|
A|------------------------|
E|---------------------x3-|


"Parece mentira..."
  [1a guitarra (en la segunda vuelta de la segunda guitarra)]
   F               Am      G
e|---------------------------------|
B|---------------------------------|
G|---------------------------------|
D|-3-3--3--3-3--3--7-7--7--5-5--5--|
A|-3-3--3--3-3--3--7-7--7--5-5--5--|
E|-1-1--1--1-1--1--5-5--5--3-3--3--|


"pero tu..."
  [primera guitarra en PM (distorcion)]
   F                                 Am               G
e|--------------------------------------------------------|
B|--------------------------------------------------------|
G|--------------------------------------------------------|
D|-3333333333333333-3333333333333333-7777777777777777-5~--|
A|-3333333333333333-3333333333333333-7777777777777777-5~--|
E|-1111111111111111-1111111111111111-5555555555555555-3~--|


"yo se que sientes algo mas..."
  (en esta parte se toca lo mismo que en el primer Riff)
 

Coro (distorcion)
  [1a guitarra]
   F                    Dm                   Am                   G
e|----------------------------------------------------------------------------------x2-|
B|-------------------------------------------------------------------------------------|
G|----------------------7-7-7-7-7-7-7-7-7-7--------------------------------------------|
D|-3-3-3-3-3-3-3-3-3-3--7-7-7-7-7-7-7-7-7-7--7-7-7-7-7-7-7-7-7-7--5-5-5-5-5-5-5-5-5-5--|
A|-3-3-3-3-3-3-3-3-3-3--5-5-5-5-5-5-5-5-5-5--7-7-7-7-7-7-7-7-7-7--5-5-5-5-5-5-5-5-5-5--|
E|-1-1-1-1-1-1-1-1-1-1-----------------------5-5-5-5-5-5-5-5-5-5--3-3-3-3-3-3-3-3-3-3--|

  [2a guitarra]
   F     Dm    Am              G        F     Dm    Am              G
e|-------------------------------------------------------------------------------------|
B|-------------------------------------------------------------------------------------|
G|-5~----7~---12-10--9-10--9--7--7--9--5~----7~---12-10--9-10--9-----------------------|
D|-x-----x-----x--x--x--x--x--x--x--x--x-----x-----x--x--x--x--x--5-5-5-5-5-5-5-5-5-5--|
A|-3~----5~---10--8--7--8--7--5--5--7--3~----5~---10--8--7--8--7--5-5-5-5-5-5-5-5-5-5--|
E|----------------------------------------------------------------3-3-3-3-3-3-3-3-3-3--|


"dispara bien..."
  (es lo mismo que en el primer Riff, pero solo lo de la primera guitarra)


Puente (sin distorcion)
  (Se hace con la 1a guitarra un rasgeo con las notas F-Am-G)

  [2a guitarra (cuando empieza a cantar)]
   F                               Am                 G
e|-8---8---7---7---8---8---7---7---8---8/10-10---10---10---8/10-10---10--|
B|---8---8---8-------8---8---8-------8---------8---------8---------8-----|
G|-----------------------------------------------------------------------|
D|-----------------------------------------------------------------------|
A|-----------------------------------------------------------------------|
E|-----------------------------------------------------------------------|
   F                               Am                G
e|-8---8---7---7---8---8---7---7---8---8---10---10------------------------|
B|---8---8---8-------8---8---8-------8---8----8---------------------------|
G|--------------------------------------------------dist------------------|
D|---------------------------------------------------5-5-5-5-5-5-5-5-5-5--|
A|---------------------------------------------------5-5-5-5-5-5-5-5-5-5--|
E|---------------------------------------------------3-3-3-3-3-3-3-3-3-3--|


En el final solo se rasguea este acorde junto con el bombo

e|------------------------|
B|------------------------|
G|-5-5-5-5-5-5-5-5-5--4~--|
D|-5-5-5-5-5-5-5-5-5--5~--|
A|-3-3-3-3-3-3-3-3-3--3~--|
E|------------------------|




     ... Por ch4ztt
            
Submit corrections

↑ Back to top | Tablatures and chords for acoustic guitar and electric guitar, ukulele, drums are parodies/interpretations of the original songs. You may use it for private study, scholarship, research or language learning purposes only