Home » I » Insane Clown Posse »

Insane Clown Posse - Fonz Pond Tabs

Artists:  A B C D E F G H I J K L M N O P Q R S T U V W X Y Z # 

Fonz Pond Tabs

(ver. 2) Click to play this song!
Insane Clown Posse
Icp

10.Fonz Pond


Hey,... I know where we can go.
Where?
hmm?
Lets go to Fonz Pond!

Intro:
e|-----------------------------------------------------|
B|-----------------------------------------------------|
G|-----------------------------------------------------|
D|-----------------------------------------------------|
A|-3/5-5-5-5-5-5-6-3/5-5-5-5-5-5-5-5-3/5-5-5-5-5-5-6---|
E|-1/3-3-3-3-3-3-4-1/3-3-3-3-3-3-3-3-1/3-3-3-3-3-3-4---|
     pm---------|    Pm-------------|  pm-----------|
e|-----------------------------------------------------|
B|-----------------------------------------------------|
G|-----------------------------------------------------|
D|-----------------------------------------------------|
A|-3/5-5-5-5-5-5-5-6-5-6-------------------------------|
E|-1/3-3-3-3-3-3-3-4-3-4-------------------------------|
      pm----------| pm
Verse 1:
e|-----------------------------------------------------|
B|-----------------------------------------------------|
G|-----------------------------------------------------|
D|-----------------------------------------------------|
A|-3/5-5-5-5-5-5-6-3/5-5-5-5-5-5-5-5-3/5-5-5-5-5-5-6---|
E|-1/3-3-3-3-3-3-4-1/3-3-3-3-3-3-3-3-1/3-3-3-3-3-3-4---|
     pm---------|    Pm-------------|  pm-----------|
e|-----------------------------------------------------|
B|-----------------------------------------------------|
G|-----------------------------------------------------|
D|-----------------------------------------------------|
A|-3/5-5-5-5-5-5-5-6-5-6-------------------------------|
E|-1/3-3-3-3-3-3-3-4-3-4-------------------------------|
      pm----------| pm



Chorus 1:
e|-----------------------------------------------------|
B|-----------------------------------------------------|
G|-----------------------------------------------------|
D|-----------------------------------------------------|
A|-3/5-5-5-5-5-5-6-3/5-5-5-5-5-5-5-5-3/5-5-5-5-5-5-6---|
E|-1/3-3-3-3-3-3-4-1/3-3-3-3-3-3-3-3-1/3-3-3-3-3-3-4---|
     pm---------|    Pm-------------|  pm-----------|
e|-----------------------------------------------------|
B|-----------------------------------------------------|
G|-----------------------------------------------------|
D|-----------------------------------------------------|
A|-3/5-5-5-5-5-5-5-6-5-6-------------------------------|
E|-1/3-3-3-3-3-3-3-4-3-4-------------------------------|
      pm----------| pm


Pre-Verse
e|-----------------------------------------------------|
B|-----------------------------------------------------|
G|-----------------------------------------------------|
D|-----------------------------------------------------|
A|-3/5-5-5-5-5-5-6-3/5-5-5-5-5-5-5-5-3/5-5-5-5-5-5-6---|
E|-1/3-3-3-3-3-3-4-1/3-3-3-3-3-3-3-3-1/3-3-3-3-3-3-4---|
     pm---------|    Pm-------------|  pm-----------|
e|-----------------------------------------------------|
B|-----------------------------------------------------|
G|-----------------------------------------------------|
D|-----------------------------------------------------|
A|-3/5-5-5-5-5-5-5-6-5-6-------------------------------|
E|-1/3-3-3-3-3-3-3-4-3-4-------------------------------|
      pm----------| pm



Verse 2:
e|-----------------------------------------------------|
B|-----------------------------------------------------|
G|-----------------------------------------------------|
D|-----------------------------------------------------|
A|-3/5-5-5-5-5-5-6-3/5-5-5-5-5-5-5-5-3/5-5-5-5-5-5-6---|
E|-1/3-3-3-3-3-3-4-1/3-3-3-3-3-3-3-3-1/3-3-3-3-3-3-4---|
     pm---------|    Pm-------------|  pm-----------|
e|-----------------------------------------------------|
B|-----------------------------------------------------|
G|-----------------------------------------------------|
D|-----------------------------------------------------|
A|-3/5-5-5-5-5-5-5-6-5-6-------------------------------|
E|-1/3-3-3-3-3-3-3-4-3-4-------------------------------|
      pm----------| pm





Chorus 2:
e|-----------------------------------------------------|
B|-----------------------------------------------------|
G|-----------------------------------------------------|
D|-----------------------------------------------------|
A|-3/5-5-5-5-5-5-6-3/5-5-5-5-5-5-5-5-3/5-5-5-5-5-5-6---|
E|-1/3-3-3-3-3-3-4-1/3-3-3-3-3-3-3-3-1/3-3-3-3-3-3-4---|
     pm---------|    Pm-------------|  pm-----------|
e|-----------------------------------------------------|
B|-----------------------------------------------------|
G|-----------------------------------------------------|
D|-----------------------------------------------------|
A|-3/5-5-5-5-5-5-5-6-5-6-------------------------------|
E|-1/3-3-3-3-3-3-3-4-3-4-------------------------------|
      pm----------| pm



Bridge:
e|-----------------------------------------------------|
B|-----------------------------------------------------|
G|-----------------------------------------------------|
D|-10~~~~~~~~~~~~~~-10~~~~~~~~~~~~~~-------------------|
A|-10~~~~~~~~~~~~~~-10~~~~~~~~~~~~~~-------------------|
E|-8~~~~~~~~~~~~~~~-8~~~~~~~~~~~~~~~-------------------|




Verse 3:
e|-----------------------------------------------------|
B|-----------------------------------------------------|
G|-----------------------------------------------------|
D|-----------------------------------------------------|
A|-3/5-5-5-5-5-5-6-3/5-5-5-5-5-5-5-5-3/5-5-5-5-5-5-6---|
E|-1/3-3-3-3-3-3-4-1/3-3-3-3-3-3-3-3-1/3-3-3-3-3-3-4---|
     pm---------|    Pm-------------|  pm-----------|
e|-----------------------------------------------------|
B|-----------------------------------------------------|
G|-----------------------------------------------------|
D|-----------------------------------------------------|
A|-3/5-5-5-5-5-5-5-6-5-6-------------------------------|
E|-1/3-3-3-3-3-3-3-4-3-4-------------------------------|
      pm----------| pm


Chorus 3:
e|-----------------------------------------------------|
B|-----------------------------------------------------|
G|-----------------------------------------------------|
D|-----------------------------------------------------|
A|-3/5-5-5-5-5-5-6-3/5-5-5-5-5-5-5-5-3/5-5-5-5-5-5-6---|
E|-1/3-3-3-3-3-3-4-1/3-3-3-3-3-3-3-3-1/3-3-3-3-3-3-4---|
     pm---------|    Pm-------------|  pm-----------|
e|-----------------------------------------------------|
B|-----------------------------------------------------|
G|-----------------------------------------------------|
D|-----------------------------------------------------|
A|-3/5-5-5-5-5-5-5-6-5-6-------------------------------|
E|-1/3-3-3-3-3-3-3-4-3-4-------------------------------|
      pm----------| pm


Bridge:
e|-----------------------------------------------------|
B|-----------------------------------------------------|
G|-----------------------------------------------------|
D|-10~~~~~~~~~~~~~~-10~~~~~~~~~~~~~~-------------------|
A|-10~~~~~~~~~~~~~~-10~~~~~~~~~~~~~~-------------------|
E|-8~~~~~~~~~~~~~~~-8~~~~~~~~~~~~~~~-------------------|


Chorus 4:
e|-----------------------------------------------------|
B|-----------------------------------------------------|
G|-----------------------------------------------------|
D|-----------------------------------------------------|
A|-3/5-5-5-5-5-5-6-3/5-5-5-5-5-5-5-5-3/5-5-5-5-5-5-6---|
E|-1/3-3-3-3-3-3-4-1/3-3-3-3-3-3-3-3-1/3-3-3-3-3-3-4---|
     pm---------|    Pm-------------|  pm-----------|
e|-----------------------------------------------------|
B|-----------------------------------------------------|
G|-----------------------------------------------------|
D|-----------------------------------------------------|
A|-3/5-5-5-5-5-5-5-6-5-6-------------------------------|
E|-1/3-3-3-3-3-3-3-4-3-4-------------------------------|
      pm----------| pm
            
Submit corrections

↑ Back to top | Tablatures and chords for acoustic guitar and electric guitar, ukulele, drums are parodies/interpretations of the original songs. You may use it for private study, scholarship, research or language learning purposes only