Home » I » Inner Circle »

Inner Circle - Bad Boys Tabs

Artists:  A B C D E F G H I J K L M N O P Q R S T U V W X Y Z # 

Bad Boys Tabs

(ver. 3) Click to play this song!
Inner Circle
---------------------------------------------------
INNER CIRCLE - BAD BOYS
---------------------------------------------------

Tuning:

All the tabs I've found are plain wrong and I've decided to make a very
accurate tab of the song. The secret here is the tuning. It is not exactly
standard but can be played standard. The tuning needs to be slightly higher
but not a full half step. Basically, if you have a tuner, aim to tune at
450hz instead of normal 440hz tuning.
---------------------------------------------------

Beginning:

 e --4----10-7-9-7----7------4------------------|
 B -----------------9---9-----------------------|
 G ---------------------------------------------|
 D ---------------------------------------------|
 A ---------------------------------------------|
 E --4-----------------------4------------------|

Fill-in 1:

 e ---------------------------------------------|
 B ---------------------------------------------|
 G --6b7b6-6-4-6-4------------------------------|
 D -----------------6-5-4-5-6-------------------|
 A ---------------------------------------------|
 E ---------------------------------------------|

Fill in 2: (do really fast)

 e --7-7--9/10-7-9---7--------------------------|
 B ----------------9----------------------------|
 G ---------------------------------------------|
 D ---------------------------------------------|
 A ---------------------------------------------|
 E ---------------------------------------------|

Chords:

The chord progression is an easy G#m and B

    G#m  B

 e --4---7--------|
 B --4---7--------|
 G --4---8--------|
 D --6---9--------|
 A --6---9--------|
 E --4---7--------|
            
Submit corrections

↑ Back to top | Tablatures and chords for acoustic guitar and electric guitar, ukulele, drums are parodies/interpretations of the original songs. You may use it for private study, scholarship, research or language learning purposes only