Home » I » Inme »

Inme - Trenches Tabs

Artists:  A B C D E F G H I J K L M N O P Q R S T U V W X Y Z # 

Trenches Tabs

(ver. 2) Click to play this song!
Inme
* - Harmonic
Tuning – Drop D

Part 1 - (0.00)
E[-------------------------------------------------------------------]
B[-------------------------------------------------------------------]
G[-------------------------------------------------------------------]  
D[--------5*-------------4*-------------5*-------------7*------------]
A[----5*----5*--5*---4*----4*--4*---5*----5*--5*---7*----7*--7*------]
D[--5*--5*----5*---4*--4*----4*---5*--5*----5*---7*--7*----7*--------]

Repeat Part 1 Two Times


-Phaser On-

Part 2  - (0.12 - I can't be here anymore...)
E[-------------------------------------------------------------------]
B[-------------------------------------------------------------------]
G[-------------------------------------------------------------------]  
D[--0-0-0--4-4-4-4--5-5-5-5--7-7-7-7---------------------------------]
A[--0-0-0--4-4-4-4--5-5-5-5--7-7-7-7---------------------------------]
D[--0-0-0--4-4-4-4--5-5-5-5--7-7-7-7---------------------------------]

Repeat Part 2 Four Times


Part 3 (0.37 - This is the way we play...)
E[-------------------------------------------------------------------]
B[-------------------------------------------------------------------]
G[-------------------------------------------------------------------]  
D[--8-8-8--3-3-3-3--4-4-4-4--6-6-6-6---------------------------------]
A[--8-8-8--3-3-3-3--4-4-4-4--6-6-6-6---------------------------------]
D[--8-8-8--3-3-3-3--4-4-4-4--6-6-6-6---------------------------------]

Repeat Part 3 Four Times


Part 4 (1.03 - This is all my fault...)
E[-------------------------------------------------------------------]
B[-------------------------------------------------------------------]
G[-------------------------------------------------------------------]  
D[--0-0-0--3-3-3-3--5-5-5-5--7-7-7-7---------------------------------]
A[--0-0-0--3-3-3-3--5-5-5-5--7-7-7-7---------------------------------]
D[--0-0-0--3-3-3-3--5-5-5-5--7-7-7-7---------------------------------]

E[-------------------------------------------------------------------]
B[-------------------------------------------------------------------]
G[-------------------------------------------------------------------]  
D[--0-0-0--3-3-3-3--7-7--1-1—-4-4------------------------------------]
A[--0-0-0--3-3-3-3--7-7--1-1--4-4------------------------------------]
D[--0-0-0--3-3-3-3--7-7--1-1--4-4------------------------------------]

Repeat Part 4 Two Times


-Phaser Off-
-Distortion On-

Part 5 (1.27 - Now I've changed, the page has turned...)
E[-------------------------------------------------------------------]
B[-------------------------------------------------------------------]
G[-------------------------------------------------------------------]  
D[--0-0-0--4-4-4-4--5-5-5-5--7-7-7-7---------------------------------]
A[--0-0-0--4-4-4-4--5-5-5-5--7-7-7-7---------------------------------]
D[--0-0-0--4-4-4-4--5-5-5-5--7-7-7-7---------------------------------]

Repeat Part 5 Four Times


Part 6 (1.52 - This is all my fault...)
E[-------------------------------------------------------------------]
B[-------------------------------------------------------------------]
G[-------------------------------------------------------------------]  
D[--0-0-0--3-3-3-3--5-5-5-5--7-7-7-7---------------------------------]
A[--0-0-0--3-3-3-3--5-5-5-5--7-7-7-7---------------------------------]
D[--0-0-0--3-3-3-3--5-5-5-5--7-7-7-7---------------------------------]

E[-------------------------------------------------------------------]
B[-------------------------------------------------------------------]
G[-------------------------------------------------------------------]  
D[--0-0-0--3-3-3-3--7-7-7-7--1-1—-4-4--------------------------------]
A[--0-0-0--3-3-3-3--7-7-7-7--1-1--4-4--------------------------------]
D[--0-0-0--3-3-3-3--7-7-7-7--1-1--4-4--------------------------------]

Repeat Part 6 Two Times


Part 7 - (2.16)
E[-------------------------------------------------------------------]
B[-------------------------------------------------------------------]
G[-------------------------------------------------------------------]  
D[--------5*-------------4*-------------5*-------------7*------------]
A[----5*----5*--5*---4*----4*--4*---5*----5*--5*---7*----7*--7*------]
D[--5*--5*----5*---4*--4*----4*---5*--5*----5*---7*--7*----7*--------]

Repeat Part 7 Two Times


Part 8 - (1.29 - Let's all kill ourselves again...)
E[-------------------------------------------------------------------]
B[-------------------------------------------------------------------]
G[-------------------------------------------------------------------]  
D[--0-0-0--4-4-4-4--5-5-5-5--7-7-7-7---------------------------------]
A[--0-0-0--4-4-4-4--5-5-5-5--7-7-7-7---------------------------------]
D[--0-0-0--4-4-4-4--5-5-5-5--7-7-7-7---------------------------------]

Repeat Part 8 Four Times


-Distortion Off-
-Phaser On-

Part 9
E[-------------------------------------------------------------------]
B[-------------------------------------------------------------------]
G[-------------------------------------------------------------------]  
D[--0-0-0--4-4-4-4--5-5-5-5--7-7-7-7---------------------------------]
A[--0-0-0--4-4-4-4--5-5-5-5--7-7-7-7---------------------------------]
D[--0-0-0--4-4-4-4--5-5-5-5--7-7-7-7---------------------------------]

E[-------------------------------------------------------------------]
B[-------------------------------------------------------------------]
G[-------------------------------------------------------------------]  
D[--------5*-------------4*-------------5*-------------7*------------]
A[----5*----5*--5*---4*----4*--4*---5*----5*--5*---7*----7*--7*------]
D[--5*--5*----5*---4*--4*----4*---5*--5*----5*---7*--7*----7*--------]
            
Submit corrections

↑ Back to top | Tablatures and chords for acoustic guitar and electric guitar, ukulele, drums are parodies/interpretations of the original songs. You may use it for private study, scholarship, research or language learning purposes only