» » »

Inme - Fire Fly Tabs

Artists:  A B C D E F G H I J K L M N O P Q R S T U V W X Y Z # 

Fire Fly Tabs

(ver. 3) Click to play this song!
Inme
 Rating:
4/5 (12 votes)


 Fire Fly lessons Tabs too difficult? Try these video lessons and learn fast
 
                Firefly-Inme

For tabbing this song i used a Tanglewood Nevada FST32K
in standard tuning a Laney HCM30r amp and a Zoom 707mk2
to get the wierd flange and reverb sounds.

Intro Clean with flange, reverb and a slight delay                                       
riff 1
E|-0-------|------|-0----|----0-----|
B|-0-------|------|-0----|----------|
G|-2-------|------|-0----|-0--------|
D|---------|--2---|-2----|----------|
A|---------|------|------|----------|
E|---------|------|------|----------|

riff 2
E|-0------|-12^---------|-0----|------------0--| 
B|-0------|---12^-------|-0----|---------------|    <---- only play the
G|-2------|-----12^-----|-0----|--0------------|     opens 1st time
D|--------|-------12^---|-2----|---------------|
A|--------|-------------|------|---------------|   
E|--------|-------------|------|---------------|

Verse 1
bass riff 1 played after guitar intro through daves 1st singing part
G|-----|----------|-----|
D|-----|----------|-----|
A|-----|-3--------|-0---|
E|1----|----------|-----|

riff 2
G|-----|----------|-------|--------|
D|-----|----------|-------|--------|
A|-----|----------|-------|--------|
E|1----|--3-------|-0-----|---0h1--|

riff 3
G|------|----------|-------|
D|------|----------|-------|
A|------|--3-------|-0-----|
E|1-----|----------|-------|

riff 4
G|----|-----|-----|-----|
D|----|-----|-----|-----|
A|----|-----|-----|-----|
E|1---|-3---|-0---|--7--|

(with distortion)
riff 3
E|-------------------|-----------------|-----------------|-----------------|
B|-------------------|-----------------|-----------------|-----------------|
G|-4-5-5-5-5-5-5-5-5-|-8-8-8-8-8-8-8-8-|-9-9-9-9-9-9-9-9-|-7-7-7-7-7-7-7-7-|
D|-4-5-5-5-5-5-5-5-5-|-8-8-8-8-8-8-8-8-|-9-9-9-9-9-9-9-9-|-7-7-7-7-7-7-7-7-|
A|-2-3-3-3-3-3-3-3-3-|-6-6-6-6-6-6-6-6-|-7-7-7-7-7-7-7-7-|-5-5-5-5-5-5-5-5-|
E|-------------------|-----------------|-----------------|-----------------|

riff 4
E|-----------------|-----------------|-----------------|-------------|
B|-----------------|-----------------|-----------------|-------------|
G|-5-5-5-5-5-5-5-5-|-8-8-8-8-8-8-8-8-|-9-9-9-9-9-9-9-9-|-9-9-9-9-4-4-|
D|-5-5-5-5-5-5-5-5-|-8-8-8-8-8-8-8-8-|-9-9-9-9-9-9-9-9-|-9-9-9-9-4-4-|
A|-3-3-3-3-3-3-3-3-|-6-6-6-6-6-6-6-6-|-7-7-7-7-7-7-7-7-|-7-7-7-7-2-2-|
E|-----------------|-----------------|-----------------|-------------|
-
riff 5
E|-----------------|-----------------|-----------------|-----------------|
B|-----------------|-----------------|-----------------|-----------------|
G|-5-5-5-5-5-5-5-5-|-8-8-8-8-8-8-8-8-|-9-9-9-9-9-9-9-9-|-7-7-7-7-7-7-7-7-|
D|-5-5-5-5-5-5-5-5-|-8-8-8-8-8-8-8-8-|-9-9-9-9-9-9-9-9-|-7-7-7-7-7-7-7-7-|
A|-3-3-3-3-3-3-3-3-|-6-6-6-6-6-6-6-6-|-7-7-7-7-7-7-7-7-|-5-5-5-5-5-5-5-5-|
E|-----------------|-----------------|-----------------|-----------------|

riff 6
E|-----------------|-----------------|-----------------|-----------------|
B|-----------------|-----------------|-----------------|-----------------|
G|-5-5-5-5-5-5-5-5-|-8-8-8-8-8-8-8-8-|-9-9-9-9-9-9-9-9-|-9-9-9-9-9-9-9-9-|
D|-5-5-5-5-5-5-5-5-|-8-8-8-8-8-8-8-8-|-9-9-9-9-9-9-9-9-|-9-9-9-9-9-9-9-9-|
A|-3-3-3-3-3-3-3-3-|-6-6-6-6-6-6-6-6-|-7-7-7-7-7-7-7-7-|-7-7-7-7-7-7-7-7-|
E|-----------------|-----------------|-----------------|-----------------|

chorus
riff 7
E|-----------|-------------|-----------|-----------|
B|-----------|-------------|-----------|-----------|
G|-9-9-9-9-9-|-8-8-8-8-8-8-|-6-6-6-6-6-|-6-6-6-6-6-|
D|-9-9-9-9-9-|-9-9-9-9-9-9-|-7-7-7-7-7-|-7-7-7-7-7-|
A|-7-7-7-7-7-|-9-9-9-9-9-9-|-7-7-7-7-7-|-7-7-7-7-7-|
E|-7-7-7-7-7-|-7-7-7-7-7-7-|-5-5-5-5-5-|-5-5-5-5-5-|

riff8
E|-----------|-------------|-----------|-----------------|
B|-----------|-------------|-----------|-----------------|
G|-9-9-9-9-9-|-8-8-8-8-8-8-|-6-6-6-6-6-|-6-6-6-6-6-6-6-6-|
D|-9-9-9-9-9-|-9-9-9-9-9-9-|-7-7-7-7-7-|-7-7-7-7-7-7-7-7-|
A|-7-7-7-7-7-|-9-9-9-9-9-9-|-7-7-7-7-7-|-7-7-7-7-7-7-7-7-|
E|-7-7-7-7-7-|-7-7-7-7-7-7-|-5-5-5-5-5-|-5-5-5-5-5-5-5-5-|


riff 7
E|-----------|-------------|-----------|-----------|
B|-----------|-------------|-----------|-----------|
G|-9-9-9-9-9-|-8-8-8-8-8-8-|-6-6-6-6-6-|-6-6-6-6-6-|
D|-9-9-9-9-9-|-9-9-9-9-9-9-|-7-7-7-7-7-|-7-7-7-7-7-|
A|-7-7-7-7-7-|-9-9-9-9-9-9-|-7-7-7-7-7-|-7-7-7-7-7-|
E|-7-7-7-7-7-|-7-7-7-7-7-7-|-5-5-5-5-5-|-5-5-5-5-5-|

riff 7
E|-----------|-------------|-----------|-----------|
B|-----------|-------------|-----------|-----------|
G|-9-9-9-9-9-|-8-8-8-8-8-8-|-6-6-6-6-6-|-6-6-6-6-6-|
D|-9-9-9-9-9-|-9-9-9-9-9-9-|-7-7-7-7-7-|-7-7-7-7-7-|
A|-7-7-7-7-7-|-9-9-9-9-9-9-|-7-7-7-7-7-|-7-7-7-7-7-|
E|-7-7-7-7-7-|-7-7-7-7-7-7-|-5-5-5-5-5-|-5-5-5-5-5-|

verse 2
riff 9
E|----|----|----|
B|----|----|----|
G|----|----|-2--|
D|-3--|----|-2--|
A|-3--|----|-0--|
E|-1--|----|----|

riff 10
E|----|----|----|----|
B|----|----|----|----|   <---- Only on 2nd
G|----|----|----|-4--|     time through
D|-3--|-5--|-2--|-4--|
A|-3--|-5--|-2--|-2--|
E|-1--|-3--|-0--|----|

Repeat pre-chorus as before riff's 3,4,5 and 6

repeat chorus as before riffs 7,8,7, and 7 

then play pre-chorus slower than before just strumming each chord once


Interlude played in clean
riff 13
E|------------|-----------|-----------|----------|  
B|-------7----|-----------|-----------|----------|  play 3 times
G|----9-----9-|------8----|------6----|-----6----|
D|-9----------|---9-----9-|---7-----7-|--7-----7-|
A|------------|-9---------|-7---------|7---------|
E|------------|-----------|-----------|----------|

riff 14                                  distortion starts again here
E|----------------|----------------|---------|-------|
B|--------7-------|----------------|---------|-------|
G|----9-------9---|--------8-------|---------|-----6-|
D|9---------------|----9-------9---|-7-7-7-7-|-7-7-7-|
A|----------------|9---------------|-7-7-7-7-|-7-7-7-|
E|----------------|----------------|-5-5-5-5-|-5-5-5-|
                                  {p.m.----------}
Outro
riff 15
E|---------|-------------|-----------|---------------------|
B|---------|-------------|-----------|---------------------|
G|-9-9-9-9-|-8-8-8-8-8-6-|-6-6-6-6-6-|-6-6-6-6-6-6-x-x-x-x-|  play 3 times
D|-9-9-9-9-|-9-9-9-9-9-7-|-7-7-7-7-7-|-7-7-7-7-7-7-x-x-x-x-|
A|-7-7-7-7-|-9-9-9-9-9-7-|-7-7-7-7-7-|-7-7-7-7-7-7-x-x-x-x-|
E|-7-7-7-7-|-7-7-7-7-7-5-|-5-5-5-5-5-|-5-5-5-5-5-5-x-x-x-x-|


riff 16
E|----------|
B|----------|
G|9-x-9-x-9-| let ring the allow feedback to come in 
D|9-x-9-x-9-|
A|7-x-7-x-7-|
E|7-x-7-x-7-|


listen to the song for the timing cos there are loads of pauses in it.
            
Submit corrections



        Fire Fly lessons Hard to play? Try these video lessons and learn fast Fire Fly lessons
        
↑ Back to top | Tablatures and chords for acoustic guitar and electric guitar, ukulele, drums are parodies/interpretations of the original songs. You may use it for private study, scholarship, research or language learning purposes only