» » »

Injected - Burn It Black Tabs

Artists:  A B C D E F G H I J K L M N O P Q R S T U V W X Y Z # 

Burn It Black Tabs

(ver. 2) Click to play this song!
Injected
 Rating:
3.6/5 (5 votes)
                

ur gunna have to figure out tha rhythm and timing. but this is my first tab so if u have corrections let 
know.

------------------------------------------------------------------------------|
------------------------------------------------------------------------------|
------------------------------------------------------------------------------|
-555-77-33--------------------------------------------------------------------|
-555-77-33--------------------------------------------------------------------|
-555-77-33--------------------------------------------------------------------|
 intro

-55-33------------------------------------------------------------------------|
-55-33------------------------------------------------------------------------|
-00-00------------------------------------------------------------------------|
-44-22------------------------------------------------------------------------|
-55-33------------------------------------------------------------------------|
------------------------------------------------------------------------------|
 verse
            
Submit corrections

↑ Back to top | Tablatures and chords for acoustic guitar and electric guitar, ukulele, drums are parodies/interpretations of the original songs. You may use it for private study, scholarship, research or language learning purposes only