Home » I » Ingrid Michaelson »

Ingrid Michaelson - Keep Breathing Tabs

Artists:  A B C D E F G H I J K L M N O P Q R S T U V W X Y Z # 

Keep Breathing Tabs

(ver. 3) Click to play this song!
Ingrid Michaelson
Part 1 (Intro) 2x
E|--------------------------------------------------------------------------|
B|--------0--------0--------------------------1--------1--------------------|
G|--------------------------2--------2--------------------------0--------0--|
D|-----0--------0--------0--------0--------2--------2--------0--------0-----|
A|-----------------------------------------------------------------0--------|
E|--3--------3--------3--------3--------3--------3--------3-----------------|


E|--------------------------------------------------------------------------|
B|--------------------------------------------------------------------------|
G|--------0--------0--------0--------0--------0--------0--------0--------0--|
D|-----4--------4--------4--------4--------0--------0--------0--------0-----|
A|--2--------2--------2--------2--------3--------3--------3--------3--------|
E|--------------------------------------------------------------------------|

Verse 1 (Cont. Part 1)
       Storm               is                co     -        ming
E|--------------------------------------------------------------------------|
B|--------0--------0--------------------------1--------1--------------------|
G|--------------------------2--------2--------------------------0--------0--|
D|-----0--------0--------0--------0--------2--------2--------0--------0-----|
A|-----------------------------------------------------------------0--------|
E|--3--------3--------3--------3--------3--------3--------3-----------------|

    But  I                             don't  mind
E|--------------------------------------------------------------------------|
B|--------------------------------------------------------------------------|
G|--------0--------0--------0--------0--------0--------0--------0--------0--|
D|-----4--------4--------4--------4--------0--------0--------0--------0-----|
A|--2--------2--------2--------2--------3--------3--------3--------3--------|
E|--------------------------------------------------------------------------|


        Peo      -       ple               are    dy    -    ing
E|--------------------------------------------------------------------------|
B|--------0--------0--------------------------1--------1--------------------|
G|--------------------------2--------2--------------------------0--------0--|
D|-----0--------0--------0--------0--------2--------2--------0--------0-----|
A|-----------------------------------------------------------------0--------|
E|--3--------3--------3--------3--------3--------3--------3-----------------|

    I close                             my blinds
E|--------------------------------------------------------------------------|
B|--------------------------------------------------------------------------|
G|--------0--------0--------0--------0--------0--------0--------0--------0--|
D|-----4--------4--------4--------4--------0--------0--------0--------0-----|
A|--2--------2--------2--------2--------3--------3--------3--------3--------|
E|--------------------------------------------------------------------------|

(Part 2)  All  that  I   know  is  I'm      breathing             now
E|--------------------------------------------------------------------------|
B|--------------------------------------------------------------------------|
G|--------0--------0--------0--------0--------0--------0--------0--------0--|
D|-----0--------0--------0--------0--------7--------7--------7--------7-----|
A|--2--------2--------3--------3--------5--------5--------5--------5--------|
E|--------------------------------------------------------------------------|

Interlude (Part 1)

Verse 2 (Cont. Part 1)
        I                 want             to change        the world,
E|--------------------------------------------------------------------------|
B|--------0--------0--------------------------1--------1--------------------|
G|--------------------------2--------2--------------------------0--------0--|
D|-----0--------0--------0--------0--------2--------2--------0--------0-----|
A|-----------------------------------------------------------------0--------|
E|--3--------3--------3--------3--------3--------3--------3-----------------|

   Instead                            I  sleep...
E|--------------------------------------------------------------------------|
B|--------------------------------------------------------------------------|
G|--------0--------0--------0--------0--------0--------0--------0--------0--|
D|-----4--------4--------4--------4--------0--------0--------0--------0-----|
A|--2--------2--------2--------2--------3--------3--------3--------3--------|
E|--------------------------------------------------------------------------|

       I                  want             to               believe   in
E|--------------------------------------------------------------------------|
B|--------0--------0--------------------------1--------1--------------------|
G|--------------------------2--------2--------------------------0--------0--|
D|-----0--------0--------0--------0--------2--------2--------0--------0-----|
A|-----------------------------------------------------------------0--------|
E|--3--------3--------3--------3--------3--------3--------3-----------------|

     more                          than    you    and       me
E|--------------------------------------------------------------------------|
B|--------------------------------------------------------------------------|
G|--------0--------0--------0--------0--------0--------0--------0--------0--|
D|-----4--------4--------4--------4--------0--------0--------0--------0-----|
A|--2--------2--------2--------2--------3--------3--------3--------3--------|
E|--------------------------------------------------------------------------|


(Part 2) All   that   I    know   is   I'm  breathing....
E|--------------------------------------------------------------------------|
B|--------------------------------------------------------------------------|
G|--------0--------0--------0--------0--------0--------0--------0--------0--|
D|-----0--------0--------0--------0--------7--------7--------7--------7-----|
A|--2--------2--------3--------3--------5--------5--------5--------5--------|
E|--------------------------------------------------------------------------|

      All    I   can     do    is   keep   breathing....
E|--------------------------------------------------------------------------|
B|--------------------------------------------------------------------------|
G|--------0--------0--------0--------0--------0--------0--------0--------0--|
D|-----0--------0--------0--------0--------7--------7--------7--------7-----|
A|--2--------2--------3--------3--------5--------5--------5--------5--------|
E|--------------------------------------------------------------------------|

     All    we    can    do    is    keep   breathing
E|--------------------------------------------------------------------------|
B|--------------------------------------------------------------------------|
G|--------0--------0--------0--------0--------0--------0--------0--------0--|
D|-----0--------0--------0--------0--------7--------7--------7--------7-----|
A|--2--------2--------3--------3--------5--------5--------5--------5--------|
E|--------------------------------------------------------------------------|


(Part 4)                      Now
E|--------------------------------------------------------------------------|
B|--------------------------------------------------------------------------|
G|--------0--------0--------0--------0--------0--------0--------0--------0--|
D|-----4--------4--------7--------7--------0--------0--------4--------4-----|
A|--3--------3--------5--------5--------------------------2--------2--------|
E|--------------------------------------3--------3--------------------------|

                             Now
E|--------------------------------------------------------------------------|
B|--------------------------------------------------------------------------|
G|--------0--------0--------0--------0--------0--------0--------0--------0--|
D|-----4--------4--------7--------7--------4--------4--------4--------4-----|
A|--3--------3--------5--------5-----------------2--------2--------2--------|
E|--------------------------------------0-----------------------------------|


             Now
E|--------------------------------------------------------------------------|
B|--------------------------------------------------------------------------|
G|--------0--------0--------0--------0-----0-----0-----0--------0--------0--|
D|-----4--------4--------7--------7--------------------------4--------4-----|
A|--3--------3--------5--------5--------------0-----2-----3--------3--------|
E|--------------------------------------3-----------------------------------|
           Now
E|--------------------------------------------------------------------------|
B|--------------------------------------------------------------------------|
G|-----0-----0-----0--------0--------0--------0--------0--------0--------0--|
D|-----------------------4--------4--------7--------7--------7--------7-----|
A|--------0-----2-----3--------3--------5--------5--------5--------5--------|
E|--3-----------------------------------------------------------------------|


Final Chorus (Part 5)
     All  that  I    know   is    I'm        breathing
E|--------------------------------------------------------------------------|
B|--------3-----3-----------5-----5-----------8-----8-----------7-----7-----|
G|--------------------------------------------------------------------------|
D|-----4-----4-----4-----5-----5-----5-----7-----7-----7-----7-----7-----7--|
A|--2-----------------3-----------------5-----------------5-----------------|
E|--------------------------------------------------------------------------|


(Part 2)  All   I   can   do   is   keep    breathing
E|--------------------------------------------------------------------------|
B|--------------------------------------------------------------------------|
G|--------0--------0--------0--------0--------0--------0--------0--------0--|
D|-----0--------0--------0--------0--------7--------7--------7--------7-----|
A|--2--------2--------3--------3--------5--------5--------5--------5--------|
E|--------------------------------------------------------------------------|

      All    we    can    do    is    keep   breathing  (8x)
E|--------------------------------------------------------------------------|
B|--------------------------------------------------------------------------|
G|--------0--------0--------0--------0--------0--------0--------0--------0--|
D|-----0--------0--------0--------0--------7--------7--------7--------7-----|
A|--2--------2--------3--------3--------5--------5--------5--------5--------|
E|--------------------------------------------------------------------------|

      All    we    can    do    is    keep    breath.............
E|--------------------------------------------------------------------------|
B|--------------------------------------------------------------------------|
G|--------0--------0--------0--------0--------0--------0--------0--------0--|
D|-----0--------0--------0--------0--------7--------7--------7--------7-----|
A|--2--------2--------3--------3--------5--------5--------5--------5--------|
E|--------------------------------------------------------------------------|

   ....ing
E|-----------------------------------------|
B|-----------------------------------------|
G|--------0--------0--------0--------0-----|
D|-----7--------7--------7--------7--------|
A|--5--------5--------5--------5-----------|
E|-----------------------------------------|


 (Part 1)  Now....
E|--------------------------------------------------------------------------|
B|--------0--------0--------------------------1--------1--------------------|
G|--------------------------2--------2--------------------------0--------0--|
D|-----0--------0--------0--------0--------2--------2--------0--------0-----|
A|-----------------------------------------------------------------0--------|
E|--3--------3--------3--------3--------3--------3--------3-----------------|

                                         C/G (hold)
E|--------------------------------------------------------------------------|
B|----------------------------------------1---------------------------------|
G|--------0--------0--------0--------0----0---------------------------------|
D|-----4--------4--------4--------4-------2---------------------------------|
A|--2--------2--------2--------2----------3---------------------------------|
E|----------------------------------------3---------------------------------|            
Submit corrections

↑ Back to top | Tablatures and chords for acoustic guitar and electric guitar, ukulele, drums are parodies/interpretations of the original songs. You may use it for private study, scholarship, research or language learning purposes only