» » »

Indigo Girls - Closer To Fine Tabs

Artists:  A B C D E F G H I J K L M N O P Q R S T U V W X Y Z # 

Closer To Fine Tabs

(ver. 1) Click to play this song!
Indigo Girls
 Rating:
4/5 (4 votes)
                e---------3------3------3------3------------3------3------3------3------------3------3------3------3------

B---------3------3------3------3------------3------3------3------3------------3------3------3------3------

G---------0------0------0------0------------0------0------0------0------------0------0------0------0------

D---------0------0------0------0------------2------2------2------2------------2------2------2------2------

A---------2------2------2------2------0-----------------------------------3------------------------------------

E---3----3------3------3------3---------------------------------------------------------------------------------


e-----------3-----2----0----2----

B-----------------------------------

G-----------------------------------

D-----------------------------------

A-----------------------------------

E-----------------------------------

This repeats throughout a chunk of the song. Enjoy.
            
Submit corrections

↑ Back to top | Tablatures and chords for acoustic guitar and electric guitar, ukulele, drums are parodies/interpretations of the original songs. You may use it for private study, scholarship, research or language learning purposes only