» » »

Incubus - Talk Show On Mute Tabs

Artists:  A B C D E F G H I J K L M N O P Q R S T U V W X Y Z # 

Talk Show On Mute Tabs

(ver. 1) Click to play this song!
Incubus
 Rating:
4/5 (4 votes)


 Talk Show On Mute lessons Tabs too difficult? Try these video lessons and learn fast
 
                Incubus - Talk Shows on Mute


---------------------------------------------------
---------------------------------------------------
------------0---------------0----------------------
--2-2-2-2-2---2---2-2-2-2-2---2--------------------
--3-3-0-3-3-----3-3-3-0-3-3-----3------------------
---------------------------------------------------

----------------------------3-3--------------------
----------------------------3-3--------------------
------------0---------------0-0--------------------
--2-2-0-2-2---2---2-2-0-2-2-0-0--------------------
--0-0-0-0-0-----0-0-0-0-0-0-2-2--------------------
----------------------------3-3--------------------

chorus
-----11111-----33333-------------------------------
-----11111-----33333-------------------------------
-----22222-----00000-------------------------------
-----33333-----00000-------------------------------
-----33333-----22222-------------------------------
--1--11111--3--33333-------------------------------

2nd verse
-------0---------0------------
------0---------0-------------
-----0---------2--------------
----2---------2---------------  then back to normal
---3---------0----------------
--0---------0-----------------
     (rake)


(Didn't try to tab the solo)


end
--------0------------0----------1---
-------0------------0----------1----
------0------------2----------2-----
-----2------------2----------3------ (rake)
----3------------0----------3-------
---0------------0----------1--------
"i hate to say, so much more, so much more...."
            
Submit corrections



        Talk Show On Mute lessons Hard to play? Try these video lessons and learn fast Talk Show On Mute lessons
        
↑ Back to top | Tablatures and chords for acoustic guitar and electric guitar, ukulele, drums are parodies/interpretations of the original songs. You may use it for private study, scholarship, research or language learning purposes only