» » »

Incubus - Smile Lines Bass

Artists:  A B C D E F G H I J K L M N O P Q R S T U V W X Y Z # 

Smile Lines Bass

(ver. 1) Click to play this song!
Incubus
 Rating:
4/5 (4 votes)
                Smile lines
THIS IS ONLY BASIC! MAKE A REAL TAB OFF THIS!
inclazybus

Intro


--------------------0-0---------------------------------------------
--0-0---------0-0---------0-0---------0-0-----4-4-------------------
------0-2-0-0----0-2----0-----0-2-0-0-----0-2-----0------

chorus
---------------------------------------------------
----------------------------------------------------
--3-----3-------3--------5--------------------------
----3-5----3-5----3-5-1-----------------------------

bit after pause 

-------------------------------------------
-------------------------------------------
--3-----5----------------------------------
----4-1------------------------------------
            
Submit corrections

↑ Back to top | Tablatures and chords for acoustic guitar and electric guitar, ukulele, drums are parodies/interpretations of the original songs. You may use it for private study, scholarship, research or language learning purposes only