» » »

Incubus - Priceless Bass

Artists:  A B C D E F G H I J K L M N O P Q R S T U V W X Y Z # 

Priceless Bass

(ver. 1) Click to play this song!
Incubus
 Rating:
4/5 (4 votes)
                priceless                                                           

THIS IS ONLY BASIC! MAKE A REAL TAB OFF THIS!
inclazybus

chorus/pre verse

----------------2--------------------0----------------2--------------2-3-3-2-5--
-----------------5----------------2-4------------------5------------------------
--0---3-0-3--3-4--4--0---3-0-3-3-4------0---3-0-3--3-4--4--0---3-0-3------------
----2------------------2-----------------2-------------------2------------------ x2

verse

-----------------------------------------------
-----------------------------------------------
--0--3----0--3---------------------------------
----------------3-4-5-4-3----------------------  (repeated)

outro thing
------------5--4-4-4-2-2-2------------5----------------------------
--------3-------------------------0------4-4-4-2-2-2---------------
--5-5-5---5----------------5--2-2---2-----------------2222222------ this 
part repeats
and then strum last chords rapidly on the last bar before going into the 
verse part
            
Submit corrections

↑ Back to top | Tablatures and chords for acoustic guitar and electric guitar, ukulele, drums are parodies/interpretations of the original songs. You may use it for private study, scholarship, research or language learning purposes only