» » »

Incubus - Echo Tabs

Artists:  A B C D E F G H I J K L M N O P Q R S T U V W X Y Z # 

Echo Tabs

(ver. 3) Click to play this song!
Incubus
 Rating:
4/5 (4 votes)

 Echo lessons Tabs too difficult? Try these video lessons and learn fast
 
                played in dropped D Tuning E-B-G-D-A-D
listen to Album Morning View to hear the speed and tempo i tried showing you how it went with this tab but this is my first so here goes

E---------------------------------------------------------------------------------
B---12--10--7---------------------------------------------------------------------
G--------------9b--7b--------------------------------------7b----7h9p7h9p7h9/11b--
D---------------------9b--7--9b-----------------------7h9-------------------------
A----------------------------------7h9p7b----7h9p7h9------------------------------
D---------------------------------------------------------------------------------

      E-----7----------------------          h: hammer on
      B--7-----10--7---------------          p: pull off
cont. G---------------9--7---------          b: bend note
      D---------------------9--7b--          /: slide up
      A----------------------------
      D----------------------------
            
Submit corrections


        Echo lessons Hard to play? Try these video lessons and learn fast Echo lessons
        
↑ Back to top | Tablatures and chords for acoustic guitar and electric guitar, ukulele, drums are parodies/interpretations of the original songs. You may use it for private study, scholarship, research or language learning purposes only