» » »

Incubus - Drive Tabs

Artists:  A B C D E F G H I J K L M N O P Q R S T U V W X Y Z # 

Drive Tabs

(ver. 2) Click to play this song!
Incubus
 Rating:
4/5 (4 votes)

 Drive lessons Tabs too difficult? Try these video lessons and learn fast
 
                
Acoustic Guitar tuned Straight E, A, D, G, B, E
It just shows the changes and the finger picking not how many
time you actually play the chords.


Intro & Verse & Chorus
e--------2--2--2--------2--2--------0--0---0--0--0------
B--------0--0--0--------3--3--------1--1---2--2--2------
G--------0--0--0--------2--2--------0--0---2--2--2------
D--------2--2--2--0-0---0--0------2--------2--2--2------
A-----2------------------------3-----------0--0--0------
E--0----------------------------------------------------

Pre-Chorus
e---0--0--0--0---0--0--0--0---0--0--0--0---0--0--0--0---
B---1--1--1--1---2--2--2--2---3--3--3--3---2--2--2--2---
G---0--0--0--0---0--0--0--0---0--0--0--0---2--2--2--2---
D---2--2--2--2---2--2--2--2---2--2--2--2---2--2--2--2---
A---3--3--3--3---0--0--0--0---3--3--3--3---0--0--0--0---
E-------------------------------------------------------
            
Submit corrections


        Drive lessons Hard to play? Try these video lessons and learn fast Drive lessons
        
↑ Back to top | Tablatures and chords for acoustic guitar and electric guitar, ukulele, drums are parodies/interpretations of the original songs. You may use it for private study, scholarship, research or language learning purposes only