» » »

Incubus - Dig Tabs

Artists:  A B C D E F G H I J K L M N O P Q R S T U V W X Y Z # 

Dig Tabs

(ver. 1) Click to play this song!
Incubus
 Rating:
4/5 (4 votes)

 Dig lessons Tabs too difficult? Try these video lessons and learn fast
 
                Incubus - Dig
Light Grenades
           AIM: railmaster123

Hope you all enjoy this tab as much as I enjoy this song!


Standard Tuning (EADGbe)

Intro: [delay/light distortion]

e|---------16-----------------16-----------------16--------------------16-----|
b|----16------16---16----16------16---16----14------14----14-----14-------14--|
G|----------------------------------------------------------------------------|
D|-14---14------14-----14--14------14----16---16------16----------------------|
A|------------------------------------------------------------16----16--------|
E|----------------------------------------------------------------------------|

Also plays this in there... listen carefully

-------18p16-----|
---14--------14--|
-----------------|
-----------------|
-16--16----------|
-----------------|

Verse:
Chords

Emaj     F#maj   C#min
-0--     -2--     -4--|
-0--     -2--     -5--|
-1--     -3--     -6--|
-2--     -4--     -6--|
-2--     -4--     -4--|
-0--     -2--     ----|

We all have a weakness
But some of ours are easier to identify. Look me in the eye
& ask for forgiveness;
we'll make a pact to never speak that word again.
Yes, you are my friend.
We all have something that digs us,
at least we dig each other.
So when weakness turns my ego up
I know you'll count on the me from yesterday.


Chorus:
Lead guitar
e|------------------------------------------------/11---------11------9-9h11-11--|
b|----11--------11-------11---11-11-----11---11----------------------------------|
g|-13-----13-13--------8----8-------8--------------------------------------------|
D|-------------------------------------------------------9-------9---------------|
A|---------------------------------------------------------11--------------------|
E|-------------------------------------------------------------------------------|

------------------------------------------9--------------------------------------|
----11--------11-------11---11-11------------------------------------------------|
-13-----13-13--------8----8-------8----------11----11----------------------------|
--------------------------------------11-----------11----------------------------|
---------------------------------------------------9---11-11-11\-9-9-9-9---------|
---------------------------------------------------------------------------------|

----------------------------------------------------12---12-11---9---------------|
----11--------11-------11---11-11-----11~~~~11--12-------------------------------|
-13-----13-13--------8----8-------8--------------------9-------9-----------------|
---------------------------------------------------------------------------------|
---------------------------------------------------------------------------------|
---------------------------------------------------------------------------------|

-----------------------------------------14------14------14~~~~------------------|
------11--------11-----11---11-11-----12-----12-----12---12~~~~------------------|
-13-----13-13--------8----8-------8----------------------11~~~~------------------|
---------------------------------------------------------------------------------|
---------------------------------------------------------------------------------|
---------------------------------------------------------------------------------|

Chords: (play in order)

Emaj      Bmaj     F#maj     C#min      Emaj     Bmaj     Emaj    F#maj
-0--      -2--      -2--      -4--      -0--     -2--     -0--     -2--
-0--      -4--      -2--      -5--      -0--     -4--     -0--     -2--
-1--      -4--      -3--      -6--      -1--     -4--     -1--     -3--
-2--      -4--      -4--      -6--      -2--     -4--     -2--     -4--
-2--      -2--      -4--      -4--      -2--     -2--     -2--     -4--
-0--      ----      -2--      ----      -0--     ----     -0--     -2--

If I turn into another
dig me up from under what is covering
the better part of me.
Sing this song
remind me that we'll always have each other
when everything else is gone.


Verse:
We all have a sickness
that cleverly attaches & multiplies
No matter how we try.
We all have someone that digs at us,
at least we dig each other.
So when sickness turns my ego up
I know you'll act as a clever medicine.


Chorus:
If I turn into another
dig me up from under what is covering
The better part of me.
Sing this song!
Remind me that we'll always have each other
when everything else is gone.
OK, each other when everything else is gone.
            
Submit corrections


        Dig lessons Hard to play? Try these video lessons and learn fast Dig lessons
        
↑ Back to top | Tablatures and chords for acoustic guitar and electric guitar, ukulele, drums are parodies/interpretations of the original songs. You may use it for private study, scholarship, research or language learning purposes only